  0
SECTION
  2
HEADER
  9
$ACADVER
  1
AC1006
  9
$AXISMODE
 70
     0
  9
$AXISUNIT
 10
0.0625
 20
0.0625
  9
$CECOLOR
 62
0
  9
$CELTYPE
  6
CONTINUOUS
  9
$CLAYER
  8
LAYER1
  9
$EXTMIN
 10
0
 20
0
  9
$EXTMAX
 10
14.3785
 20
10.9006
  9
$LIMMIN
 10
0
 20
0
  9
$LIMMAX
 10
14.3785
 20
10.9006
  9
$GRIDMODE
 70
     0
  9
$GRIDUNIT
 10
0.125
 20
0.125
  9
$MIRRTEXT
 70
     1
  9
$SNAPMODE
 70
     1
  9
$SNAPUNIT
 10
0.125
 20
0
  9
$SNAPSTYLE
 70
     0
  9
$SPLINESEGS
 70
     8
  9
$SPLINETYPE
 70
     6
  0
ENDSEC
  0
SECTION
  2
TABLES
  0TABLE  2VPORT 70     2  0VPORT  2*ACTIVE 70     0 100.0 200.0 111.0 211.0 1213.01087 224.5 130.0 230.0 141.0 241.0 150.0 250.0 160.0 260.0 361.0 170.0 270.0 370.0 409.0 412.891304 4250.0 430.0 440.0 500.0 510.0 71     0 72   100 73     1 74     1 75     0 76     0 77     0 78     0  0ENDTAB
  0
TABLE
  2
LTYPE
 70
     1
  0
LTYPE
  2
CONTINUOUS
 70
    64
  3
Descriptive Text
 72
    65
 73
     0
 40
0
  0
ENDTAB
  0
TABLE
  2
LAYER
 70
     1
  0
LAYER
  2
LAYER1
 70
     0
 62
     7
  6
CONTINUOUS
  0
ENDTAB
  0TABLE  2STYLE 70     1  0STYLE  2STANDARD 70     0 400.0 411.0 500.0 71     0 420.2  3txt  4  0ENDTAB
  0
TABLE
  2
VIEW
 70
     0
  0
ENDTAB
  0
TABLE
  2
UCS
 70
     0
  0
ENDTAB
  0
TABLE
  2
DWGMGR
 70
     0
  0
ENDTAB
  0
ENDSEC
  0
SECTION
  2
BLOCKS
  0
BLOCK
  8
LAYER1
  2
Group1
 70
     0
 10
0
 20
0
 30
0
  0
LINE
  8
LAYER1
  6
CONTINUOUS
 62
     7
 10
2.8194
 20
9.2617
 30
0
 11
3.3472
 21
9.2617
 31
0
  0
POLYLINE
  8
LAYER1
  6
CONTINUOUS
 62
     7
 66
     1
 70
     0
 40
0.001
 41
0.001
  0
VERTEX
  8
LAYER1
 10
3
 20
9.1923
 30
0
 70
     0
  0
VERTEX
  8
LAYER1
 10
3.0139
 20
9.1923
 30
0
 70
     0
  0
VERTEX
  8
LAYER1
 10
3.0417
 20
9.1784
 30
0
 70
     0
  0
VERTEX
  8
LAYER1
 10
3.0417
 20
9.1784
 30
0
 70
     0
  0
VERTEX
  8
LAYER1
 10
3.0556
 20
9.1645
 30
0
 70
     0
  0
VERTEX
  8
LAYER1
 10
3.0556
 20
9.1367
 30
0
 70
     0
  0
VERTEX
  8
LAYER1
 10
3.0556
 20
9.1228
 30
0
 70
     0
  0
SEQEND
  0
POLYLINE
  8
LAYER1
  6
CONTINUOUS
 62
     7
 66
     1
 70
     0
 40
0.001
 41
0.001
  0
VERTEX
  8
LAYER1
 10
3.0972
 20
9.1228
 30
0
 70
     0
  0
VERTEX
  8
LAYER1
 10
3.0972
 20
9.1367
 30
0
 70
     0
  0
VERTEX
  8
LAYER1
 10
3.1111
 20
9.1645
 30
0
 70
     0
  0
VERTEX
  8
LAYER1
 10
3.125
 20
9.1784
 30
0
 70
     0
  0
VERTEX
  8
LAYER1
 10
3.125
 20
9.1784
 30
0
 70
     0
  0
VERTEX
  8
LAYER1
 10
3.1528
 20
9.1923
 30
0
 70
     0
  0
VERTEX
  8
LAYER1
 10
3.1667
 20
9.1923
 30
0
 70
     0
  0
SEQEND
  0
POLYLINE
  8
LAYER1
  6
CONTINUOUS
 62
     7
 66
     1
 70
     0
 40
0.001
 41
0.001
  0
VERTEX
  8
LAYER1
 10
2.8472
 20
9.2062
 30
0
 70
     0
  0
VERTEX
  8
LAYER1
 10
2.8472
 20
9.2062
 30
0
 70
     0
  0
VERTEX
  8
LAYER1
 10
2.8333
 20
9.2062
 30
0
 70
     0
  0
VERTEX
  8
LAYER1
 10
2.8333
 20
9.22
 30
0
 70
     0
  0
VERTEX
  8
LAYER1
 10
2.8333
 20
9.22
 30
0
 70
     0
  0
VERTEX
  8
LAYER1
 10
2.8194
 20
9.22
 30
0
 70
     0
  0
VERTEX
  8
LAYER1
 10
2.8194
 20
9.2339
 30
0
 70
     0
  0
SEQEND
  0
LINE
  8
LAYER1
  6
CONTINUOUS
 62
     7
 10
2.8194
 20
9.2617
 30
0
 11
2.8194
 21
9.2339
 31
0
  0
LINE
  8
LAYER1
  6
CONTINUOUS
 62
     7
 10
3
 20
9.1923
 30
0
 11
2.8472
 21
9.2062
 31
0
  0
POLYLINE
  8
LAYER1
  6
CONTINUOUS
 62
     7
 66
     1
 70
     0
 40
0.001
 41
0.001
  0
VERTEX
  8
LAYER1
 10
3.3472
 20
9.2339
 30
0
 70
     0
  0
VERTEX
  8
LAYER1
 10
3.3472
 20
9.22
 30
0
 70
     0
  0
VERTEX
  8
LAYER1
 10
3.3472
 20
9.22
 30
0
 70
     0
  0
VERTEX
  8
LAYER1
 10
3.3333
 20
9.22
 30
0
 70
     0
  0
VERTEX
  8
LAYER1
 10
3.3194
 20
9.2062
 30
0
 70
     0
  0
VERTEX
  8
LAYER1
 10
3.3194
 20
9.2062
 30
0
 70
     0
  0
VERTEX
  8
LAYER1
 10
3.3056
 20
9.2062
 30
0
 70
     0
  0
SEQEND
  0
LINE
  8
LAYER1
  6
CONTINUOUS
 62
     7
 10
3.1667
 20
9.1923
 30
0
 11
3.3056
 21
9.2062
 31
0
  0
LINE
  8
LAYER1
  6
CONTINUOUS
 62
     7
 10
3.3472
 20
9.2339
 30
0
 11
3.3472
 21
9.2617
 31
0
  0
LINE
  8
LAYER1
  6
CONTINUOUS
 62
     7
 10
3.0556
 20
8.4284
 30
0
 11
3.0972
 21
8.4284
 31
0
  0
LINE
  8
LAYER1
  6
CONTINUOUS
 62
     7
 10
3.0556
 20
9.1228
 30
0
 11
3.0556
 21
8.4284
 31
0
  0
ENDBLK
  8
LAYER1
  0
BLOCK
  8
LAYER1
  2
Group2
 70
     0
 10
0
 20
0
 30
0
  0
LINE
  8
LAYER1
  6
CONTINUOUS
 62
     7
 10
3.0972
 20
9.1228
 30
0
 11
3.0972
 21
8.4284
 31
0
  0
LINE
  8
LAYER1
  6
CONTINUOUS
 62
     7
 10
3.0556
 20
8.5117
 30
0
 11
3.0972
 21
8.5534
 31
0
  0
LINE
  8
LAYER1
  6
CONTINUOUS
 62
     7
 10
3.0556
 20
8.6506
 30
0
 11
3.0972
 21
8.6923
 31
0
  0
LINE
  8
LAYER1
  6
CONTINUOUS
 62
     7
 10
3.0556
 20
8.7756
 30
0
 11
3.0972
 21
8.8173
 31
0
  0
LINE
  8
LAYER1
  6
CONTINUOUS
 62
     7
 10
3.0556
 20
8.9145
 30
0
 11
3.0972
 21
8.9562
 31
0
  0
LINE
  8
LAYER1
  6
CONTINUOUS
 62
     7
 10
3.0556
 20
9.0395
 30
0
 11
3.0972
 21
9.0812
 31
0
  0
LINE
  8
LAYER1
  6
CONTINUOUS
 62
     7
 10
3.2083
 20
9.1923
 30
0
 11
3.2639
 21
9.2617
 31
0
  0
LINE
  8
LAYER1
  6
CONTINUOUS
 62
     7
 10
3.0417
 20
9.1645
 30
0
 11
3.1389
 21
9.2617
 31
0
  0
LINE
  8
LAYER1
  6
CONTINUOUS
 62
     7
 10
2.9444
 20
9.1923
 30
0
 11
3
 21
9.2617
 31
0
  0
LINE
  8
LAYER1
  6
CONTINUOUS
 62
     7
 10
2.8333
 20
9.22
 30
0
 11
2.875
 21
9.2617
 31
0
  0
LINE
  8
LAYER1
  6
CONTINUOUS
 62
     7
 10
3.0556
 20
8.47
 30
0
 11
3.0972
 21
8.5117
 31
0
  0
LINE
  8
LAYER1
  6
CONTINUOUS
 62
     7
 10
3.0556
 20
8.6089
 30
0
 11
3.0972
 21
8.6506
 31
0
  0
LINE
  8
LAYER1
  6
CONTINUOUS
 62
     7
 10
3.0556
 20
8.7339
 30
0
 11
3.0972
 21
8.7756
 31
0
  0
LINE
  8
LAYER1
  6
CONTINUOUS
 62
     7
 10
3.0556
 20
8.8728
 30
0
 11
3.0972
 21
8.9145
 31
0
  0
LINE
  8
LAYER1
  6
CONTINUOUS
 62
     7
 10
3.0556
 20
8.9978
 30
0
 11
3.0972
 21
9.0395
 31
0
  0
LINE
  8
LAYER1
  6
CONTINUOUS
 62
     7
 10
3.2639
 20
9.2062
 30
0
 11
3.3194
 21
9.2617
 31
0
  0
LINE
  8
LAYER1
  6
CONTINUOUS
 62
     7
 10
3.0556
 20
9.1367
 30
0
 11
3.1806
 21
9.2617
 31
0
  0
LINE
  8
LAYER1
  6
CONTINUOUS
 62
     7
 10
2.9861
 20
9.1923
 30
0
 11
3.0417
 21
9.2617
 31
0
  0
ENDBLK
  8
LAYER1
  0
BLOCK
  8
LAYER1
  2
Group3
 70
     0
 10
0
 20
0
 30
0
  0
INSERT
  8
LAYER1
  2
Group1
 10
0
 20
0
 30
0
  0
INSERT
  8
LAYER1
  2
Group2
 10
0
 20
0
 30
0
  0
ENDBLK
  8
LAYER1
  0
BLOCK
  8
LAYER1
  2
Group4
 70
     0
 10
0
 20
0
 30
0
  0
LINE
  8
LAYER1
  6
CONTINUOUS
 62
     7
 10
2.8611
 20
9.2062
 30
0
 11
2.9167
 21
9.2617
 31
0
  0
LINE
  8
LAYER1
  6
CONTINUOUS
 62
     7
 10
2.8333
 20
6.72
 30
0
 11
3.3333
 21
6.72
 31
0
  0
POLYLINE
  8
LAYER1
  6
CONTINUOUS
 62
     7
 66
     1
 70
     0
 40
0.001
 41
0.001
  0
VERTEX
  8
LAYER1
 10
2.8611
 20
6.6645
 30
0
 70
     0
  0
VERTEX
  8
LAYER1
 10
2.8611
 20
6.6645
 30
0
 70
     0
  0
VERTEX
  8
LAYER1
 10
2.8472
 20
6.6645
 30
0
 70
     0
  0
VERTEX
  8
LAYER1
 10
2.8333
 20
6.6784
 30
0
 70
     0
  0
VERTEX
  8
LAYER1
 10
2.8333
 20
6.6923
 30
0
 70
     0
  0
SEQEND
  0
LINE
  8
LAYER1
  6
CONTINUOUS
 62
     7
 10
2.8333
 20
6.72
 30
0
 11
2.8333
 21
6.6923
 31
0
  0
POLYLINE
  8
LAYER1
  6
CONTINUOUS
 62
     7
 66
     1
 70
     0
 40
0.001
 41
0.001
  0
VERTEX
  8
LAYER1
 10
3.3333
 20
6.6923
 30
0
 70
     0
  0
VERTEX
  8
LAYER1
 10
3.3333
 20
6.6784
 30
0
 70
     0
  0
VERTEX
  8
LAYER1
 10
3.3333
 20
6.6784
 30
0
 70
     0
  0
VERTEX
  8
LAYER1
 10
3.3194
 20
6.6784
 30
0
 70
     0
  0
VERTEX
  8
LAYER1
 10
3.3194
 20
6.6645
 30
0
 70
     0
  0
VERTEX
  8
LAYER1
 10
3.3194
 20
6.6645
 30
0
 70
     0
  0
VERTEX
  8
LAYER1
 10
3.3056
 20
6.6645
 30
0
 70
     0
  0
SEQEND
  0
LINE
  8
LAYER1
  6
CONTINUOUS
 62
     7
 10
3.3333
 20
6.6923
 30
0
 11
3.3333
 21
6.72
 31
0
  0
POLYLINE
  8
LAYER1
  6
CONTINUOUS
 62
     7
 66
     1
 70
     0
 40
0.001
 41
0.001
  0
VERTEX
  8
LAYER1
 10
3.0972
 20
6.5812
 30
0
 70
     0
  0
VERTEX
  8
LAYER1
 10
3.0972
 20
6.595
 30
0
 70
     0
  0
VERTEX
  8
LAYER1
 10
3.1111
 20
6.6228
 30
0
 70
     0
  0
VERTEX
  8
LAYER1
 10
3.125
 20
6.6367
 30
0
 70
     0
  0
VERTEX
  8
LAYER1
 10
3.125
 20
6.6367
 30
0
 70
     0
  0
VERTEX
  8
LAYER1
 10
3.1528
 20
6.6506
 30
0
 70
     0
  0
VERTEX
  8
LAYER1
 10
3.1667
 20
6.6506
 30
0
 70
     0
  0
SEQEND
  0
LINE
  8
LAYER1
  6
CONTINUOUS
 62
     7
 10
3.1667
 20
6.6506
 30
0
 11
3.3056
 21
6.6645
 31
0
  0
POLYLINE
  8
LAYER1
  6
CONTINUOUS
 62
     7
 66
     1
 70
     0
 40
0.001
 41
0.001
  0
VERTEX
  8
LAYER1
 10
3
 20
6.6506
 30
0
 70
     0
  0
VERTEX
  8
LAYER1
 10
3.0139
 20
6.6506
 30
0
 70
     0
  0
VERTEX
  8
LAYER1
 10
3.0417
 20
6.6367
 30
0
 70
     0
  0
VERTEX
  8
LAYER1
 10
3.0417
 20
6.6367
 30
0
 70
     0
  0
VERTEX
  8
LAYER1
 10
3.0556
 20
6.6228
 30
0
 70
     0
  0
VERTEX
  8
LAYER1
 10
3.0556
 20
6.595
 30
0
 70
     0
  0
VERTEX
  8
LAYER1
 10
3.0556
 20
6.5812
 30
0
 70
     0
  0
SEQEND
  0
LINE
  8
LAYER1
  6
CONTINUOUS
 62
     7
 10
3
 20
6.6506
 30
0
 11
2.8611
 21
6.6645
 31
0
  0
LINE
  8
LAYER1
  6
CONTINUOUS
 62
     7
 10
3.0556
 20
5.97
 30
0
 11
3.0972
 21
5.97
 31
0
  0
LINE
  8
LAYER1
  6
CONTINUOUS
 62
     7
 10
3.0556
 20
6.5812
 30
0
 11
3.0556
 21
5.97
 31
0
  0
ENDBLK
  8
LAYER1
  0
BLOCK
  8
LAYER1
  2
Group5
 70
     0
 10
0
 20
0
 30
0
  0
LINE
  8
LAYER1
  6
CONTINUOUS
 62
     7
 10
3.0972
 20
6.5812
 30
0
 11
3.0972
 21
5.97
 31
0
  0
LINE
  8
LAYER1
  6
CONTINUOUS
 62
     7
 10
3.0556
 20
6.0534
 30
0
 11
3.0972
 21
6.095
 31
0
  0
LINE
  8
LAYER1
  6
CONTINUOUS
 62
     7
 10
3.0556
 20
6.1784
 30
0
 11
3.0972
 21
6.22
 31
0
  0
LINE
  8
LAYER1
  6
CONTINUOUS
 62
     7
 10
3.0556
 20
6.3173
 30
0
 11
3.0972
 21
6.3589
 31
0
  0
LINE
  8
LAYER1
  6
CONTINUOUS
 62
     7
 10
3.0556
 20
6.4423
 30
0
 11
3.0972
 21
6.4839
 31
0
  0
LINE
  8
LAYER1
  6
CONTINUOUS
 62
     7
 10
3.2778
 20
6.6645
 30
0
 11
3.3194
 21
6.72
 31
0
  0
LINE
  8
LAYER1
  6
CONTINUOUS
 62
     7
 10
3.0556
 20
6.5812
 30
0
 11
3.1944
 21
6.72
 31
0
  0
LINE
  8
LAYER1
  6
CONTINUOUS
 62
     7
 10
3
 20
6.6506
 30
0
 11
3.0556
 21
6.72
 31
0
  0
LINE
  8
LAYER1
  6
CONTINUOUS
 62
     7
 10
2.875
 20
6.6645
 30
0
 11
2.9306
 21
6.72
 31
0
  0
LINE
  8
LAYER1
  6
CONTINUOUS
 62
     7
 10
3.0556
 20
6.0117
 30
0
 11
3.0972
 21
6.0395
 31
0
  0
LINE
  8
LAYER1
  6
CONTINUOUS
 62
     7
 10
3.0556
 20
6.1367
 30
0
 11
3.0972
 21
6.1784
 31
0
  0
LINE
  8
LAYER1
  6
CONTINUOUS
 62
     7
 10
3.0556
 20
6.2756
 30
0
 11
3.0972
 21
6.3173
 31
0
  0
LINE
  8
LAYER1
  6
CONTINUOUS
 62
     7
 10
3.0556
 20
6.4006
 30
0
 11
3.0972
 21
6.4423
 31
0
  0
LINE
  8
LAYER1
  6
CONTINUOUS
 62
     7
 10
3.0556
 20
6.5395
 30
0
 11
3.0972
 21
6.5812
 31
0
  0
LINE
  8
LAYER1
  6
CONTINUOUS
 62
     7
 10
3.1806
 20
6.6506
 30
0
 11
3.2361
 21
6.72
 31
0
  0
LINE
  8
LAYER1
  6
CONTINUOUS
 62
     7
 10
3.0278
 20
6.6367
 30
0
 11
3.0972
 21
6.72
 31
0
  0
LINE
  8
LAYER1
  6
CONTINUOUS
 62
     7
 10
2.9167
 20
6.6645
 30
0
 11
2.9722
 21
6.72
 31
0
  0
ENDBLK
  8
LAYER1
  0
BLOCK
  8
LAYER1
  2
Group6
 70
     0
 10
0
 20
0
 30
0
  0
INSERT
  8
LAYER1
  2
Group4
 10
0
 20
0
 30
0
  0
INSERT
  8
LAYER1
  2
Group5
 10
0
 20
0
 30
0
  0
ENDBLK
  8
LAYER1
  0
BLOCK
  8
LAYER1
  2
Group7
 70
     0
 10
0
 20
0
 30
0
  0
LINE
  8
LAYER1
  6
CONTINUOUS
 62
     7
 10
2.8333
 20
6.7062
 30
0
 11
2.8333
 21
6.72
 31
0
  0
LINE
  8
LAYER1
  6
CONTINUOUS
 62
     7
 10
2.8472
 20
3.8589
 30
0
 11
3.3056
 21
3.8589
 31
0
  0
POLYLINE
  8
LAYER1
  6
CONTINUOUS
 62
     7
 66
     1
 70
     0
 40
0.001
 41
0.001
  0
VERTEX
  8
LAYER1
 10
3.0972
 20
3.7339
 30
0
 70
     0
  0
VERTEX
  8
LAYER1
 10
3.0972
 20
3.7478
 30
0
 70
     0
  0
VERTEX
  8
LAYER1
 10
3.1111
 20
3.7756
 30
0
 70
     0
  0
VERTEX
  8
LAYER1
 10
3.1111
 20
3.7895
 30
0
 70
     0
  0
VERTEX
  8
LAYER1
 10
3.125
 20
3.7895
 30
0
 70
     0
  0
VERTEX
  8
LAYER1
 10
3.1528
 20
3.8034
 30
0
 70
     0
  0
VERTEX
  8
LAYER1
 10
3.1528
 20
3.8034
 30
0
 70
     0
  0
SEQEND
  0
POLYLINE
  8
LAYER1
  6
CONTINUOUS
 62
     7
 66
     1
 70
     0
 40
0.001
 41
0.001
  0
VERTEX
  8
LAYER1
 10
3
 20
3.8034
 30
0
 70
     0
  0
VERTEX
  8
LAYER1
 10
3.0139
 20
3.8034
 30
0
 70
     0
  0
VERTEX
  8
LAYER1
 10
3.0417
 20
3.7895
 30
0
 70
     0
  0
VERTEX
  8
LAYER1
 10
3.0417
 20
3.7895
 30
0
 70
     0
  0
VERTEX
  8
LAYER1
 10
3.0556
 20
3.7756
 30
0
 70
     0
  0
VERTEX
  8
LAYER1
 10
3.0694
 20
3.7478
 30
0
 70
     0
  0
VERTEX
  8
LAYER1
 10
3.0694
 20
3.7339
 30
0
 70
     0
  0
SEQEND
  0
POLYLINE
  8
LAYER1
  6
CONTINUOUS
 62
     7
 66
     1
 70
     0
 40
0.001
 41
0.001
  0
VERTEX
  8
LAYER1
 10
2.875
 20
3.8173
 30
0
 70
     0
  0
VERTEX
  8
LAYER1
 10
2.8611
 20
3.8312
 30
0
 70
     0
  0
VERTEX
  8
LAYER1
 10
2.8611
 20
3.8312
 30
0
 70
     0
  0
VERTEX
  8
LAYER1
 10
2.8472
 20
3.8312
 30
0
 70
     0
  0
VERTEX
  8
LAYER1
 10
2.8472
 20
3.845
 30
0
 70
     0
  0
SEQEND
  0
LINE
  8
LAYER1
  6
CONTINUOUS
 62
     7
 10
2.8472
 20
3.8589
 30
0
 11
2.8472
 21
3.845
 31
0
  0
LINE
  8
LAYER1
  6
CONTINUOUS
 62
     7
 10
3
 20
3.8034
 30
0
 11
2.875
 21
3.8173
 31
0
  0
POLYLINE
  8
LAYER1
  6
CONTINUOUS
 62
     7
 66
     1
 70
     0
 40
0.001
 41
0.001
  0
VERTEX
  8
LAYER1
 10
3.3056
 20
3.845
 30
0
 70
     0
  0
VERTEX
  8
LAYER1
 10
3.3056
 20
3.8312
 30
0
 70
     0
  0
VERTEX
  8
LAYER1
 10
3.2917
 20
3.8173
 30
0
 70
     0
  0
VERTEX
  8
LAYER1
 10
3.2917
 20
3.8173
 30
0
 70
     0
  0
VERTEX
  8
LAYER1
 10
3.2778
 20
3.8173
 30
0
 70
     0
  0
SEQEND
  0
LINE
  8
LAYER1
  6
CONTINUOUS
 62
     7
 10
3.3056
 20
3.845
 30
0
 11
3.3056
 21
3.8589
 31
0
  0
LINE
  8
LAYER1
  6
CONTINUOUS
 62
     7
 10
3.1528
 20
3.8034
 30
0
 11
3.2778
 21
3.8173
 31
0
  0
LINE
  8
LAYER1
  6
CONTINUOUS
 62
     7
 10
3.0694
 20
3.2339
 30
0
 11
3.0972
 21
3.2339
 31
0
  0
LINE
  8
LAYER1
  6
CONTINUOUS
 62
     7
 10
3.0694
 20
3.7339
 30
0
 11
3.0694
 21
3.2339
 31
0
  0
ENDBLK
  8
LAYER1
  0
BLOCK
  8
LAYER1
  2
Group8
 70
     0
 10
0
 20
0
 30
0
  0
LINE
  8
LAYER1
  6
CONTINUOUS
 62
     7
 10
3.0972
 20
3.7339
 30
0
 11
3.0972
 21
3.2339
 31
0
  0
LINE
  8
LAYER1
  6
CONTINUOUS
 62
     7
 10
3.0694
 20
3.2895
 30
0
 11
3.0972
 21
3.3173
 31
0
  0
LINE
  8
LAYER1
  6
CONTINUOUS
 62
     7
 10
3.0694
 20
3.4145
 30
0
 11
3.0972
 21
3.4562
 31
0
  0
LINE
  8
LAYER1
  6
CONTINUOUS
 62
     7
 10
3.0694
 20
3.5534
 30
0
 11
3.0972
 21
3.5812
 31
0
  0
LINE
  8
LAYER1
  6
CONTINUOUS
 62
     7
 10
3.0694
 20
3.6784
 30
0
 11
3.0972
 21
3.72
 31
0
  0
LINE
  8
LAYER1
  6
CONTINUOUS
 62
     7
 10
3.1944
 20
3.8034
 30
0
 11
3.2361
 21
3.8589
 31
0
  0
LINE
  8
LAYER1
  6
CONTINUOUS
 62
     7
 10
3.0417
 20
3.7895
 30
0
 11
3.1111
 21
3.8589
 31
0
  0
LINE
  8
LAYER1
  6
CONTINUOUS
 62
     7
 10
2.9306
 20
3.8173
 30
0
 11
2.9722
 21
3.8589
 31
0
  0
LINE
  8
LAYER1
  6
CONTINUOUS
 62
     7
 10
3.0694
 20
3.2478
 30
0
 11
3.0972
 21
3.2756
 31
0
  0
LINE
  8
LAYER1
  6
CONTINUOUS
 62
     7
 10
3.0694
 20
3.3728
 30
0
 11
3.0972
 21
3.4145
 31
0
  0
LINE
  8
LAYER1
  6
CONTINUOUS
 62
     7
 10
3.0694
 20
3.5117
 30
0
 11
3.0972
 21
3.5395
 31
0
  0
LINE
  8
LAYER1
  6
CONTINUOUS
 62
     7
 10
3.0694
 20
3.6367
 30
0
 11
3.0972
 21
3.6784
 31
0
  0
LINE
  8
LAYER1
  6
CONTINUOUS
 62
     7
 10
3.2361
 20
3.8173
 30
0
 11
3.2917
 21
3.8589
 31
0
  0
LINE
  8
LAYER1
  6
CONTINUOUS
 62
     7
 10
3.0556
 20
3.7617
 30
0
 11
3.1528
 21
3.8589
 31
0
  0
LINE
  8
LAYER1
  6
CONTINUOUS
 62
     7
 10
2.9722
 20
3.8034
 30
0
 11
3.0278
 21
3.8589
 31
0
  0
ENDBLK
  8
LAYER1
  0
BLOCK
  8
LAYER1
  2
Group9
 70
     0
 10
0
 20
0
 30
0
  0
INSERT
  8
LAYER1
  2
Group7
 10
0
 20
0
 30
0
  0
INSERT
  8
LAYER1
  2
Group8
 10
0
 20
0
 30
0
  0
ENDBLK
  8
LAYER1
  0
BLOCK
  8
LAYER1
  2
Group10
 70
     0
 10
0
 20
0
 30
0
  0
LINE
  8
LAYER1
  6
CONTINUOUS
 62
     7
 10
0.2222
 20
10.5812
 30
0
 11
4.7222
 21
10.5812
 31
0
  0
LINE
  8
LAYER1
  6
CONTINUOUS
 62
     7
 10
0.8333
 20
9.345
 30
0
 11
1.4861
 21
9.345
 31
0
  0
POLYLINE
  8
LAYER1
  6
CONTINUOUS
 62
     7
 66
     1
 70
     0
 40
0.001
 41
0.001
  0
VERTEX
  8
LAYER1
 10
0.8611
 20
9.3034
 30
0
 70
     0
  0
VERTEX
  8
LAYER1
 10
0.8472
 20
9.3034
 30
0
 70
     0
  0
VERTEX
  8
LAYER1
 10
0.8472
 20
9.3034
 30
0
 70
     0
  0
VERTEX
  8
LAYER1
 10
0.8333
 20
9.3173
 30
0
 70
     0
  0
VERTEX
  8
LAYER1
 10
0.8333
 20
9.3312
 30
0
 70
     0
  0
SEQEND
  0
LINE
  8
LAYER1
  6
CONTINUOUS
 62
     7
 10
0.8333
 20
9.345
 30
0
 11
0.8333
 21
9.3312
 31
0
  0
POLYLINE
  8
LAYER1
  6
CONTINUOUS
 62
     7
 66
     1
 70
     0
 40
0.001
 41
0.001
  0
VERTEX
  8
LAYER1
 10
1.4861
 20
9.3312
 30
0
 70
     0
  0
VERTEX
  8
LAYER1
 10
1.4861
 20
9.3173
 30
0
 70
     0
  0
VERTEX
  8
LAYER1
 10
1.4861
 20
9.3034
 30
0
 70
     0
  0
VERTEX
  8
LAYER1
 10
1.4861
 20
9.3034
 30
0
 70
     0
  0
VERTEX
  8
LAYER1
 10
1.4861
 20
9.3034
 30
0
 70
     0
  0
VERTEX
  8
LAYER1
 10
1.4722
 20
9.3034
 30
0
 70
     0
  0
VERTEX
  8
LAYER1
 10
1.4583
 20
9.3034
 30
0
 70
     0
  0
SEQEND
  0
LINE
  8
LAYER1
  6
CONTINUOUS
 62
     7
 10
1.4861
 20
9.3312
 30
0
 11
1.4861
 21
9.345
 31
0
  0
POLYLINE
  8
LAYER1
  6
CONTINUOUS
 62
     7
 66
     1
 70
     0
 40
0.001
 41
0.001
  0
VERTEX
  8
LAYER1
 10
1.1944
 20
9.2062
 30
0
 70
     0
  0
VERTEX
  8
LAYER1
 10
1.1944
 20
9.22
 30
0
 70
     0
  0
VERTEX
  8
LAYER1
 10
1.2083
 20
9.2478
 30
0
 70
     0
  0
VERTEX
  8
LAYER1
 10
1.2083
 20
9.2617
 30
0
 70
     0
  0
VERTEX
  8
LAYER1
 10
1.2222
 20
9.2617
 30
0
 70
     0
  0
VERTEX
  8
LAYER1
 10
1.25
 20
9.2756
 30
0
 70
     0
  0
VERTEX
  8
LAYER1
 10
1.2639
 20
9.2756
 30
0
 70
     0
  0
SEQEND
  0
LINE
  8
LAYER1
  6
CONTINUOUS
 62
     7
 10
1.2639
 20
9.2756
 30
0
 11
1.4583
 21
9.3034
 31
0
  0
POLYLINE
  8
LAYER1
  6
CONTINUOUS
 62
     7
 66
     1
 70
     0
 40
0.001
 41
0.001
  0
VERTEX
  8
LAYER1
 10
1.0694
 20
9.2756
 30
0
 70
     0
  0
VERTEX
  8
LAYER1
 10
1.0833
 20
9.2756
 30
0
 70
     0
  0
VERTEX
  8
LAYER1
 10
1.1111
 20
9.2617
 30
0
 70
     0
  0
VERTEX
  8
LAYER1
 10
1.1111
 20
9.2617
 30
0
 70
     0
  0
VERTEX
  8
LAYER1
 10
1.125
 20
9.2478
 30
0
 70
     0
  0
VERTEX
  8
LAYER1
 10
1.1389
 20
9.22
 30
0
 70
     0
  0
VERTEX
  8
LAYER1
 10
1.1389
 20
9.2062
 30
0
 70
     0
  0
SEQEND
  0
LINE
  8
LAYER1
  6
CONTINUOUS
 62
     7
 10
1.0694
 20
9.2756
 30
0
 11
0.8611
 21
9.3034
 31
0
  0
LINE
  8
LAYER1
  6
CONTINUOUS
 62
     7
 10
1.1389
 20
8.3312
 30
0
 11
1.1944
 21
8.3312
 31
0
  0
LINE
  8
LAYER1
  6
CONTINUOUS
 62
     7
 10
1.1389
 20
9.2062
 30
0
 11
1.1389
 21
8.3312
 31
0
  0
ENDBLK
  8
LAYER1
  0
BLOCK
  8
LAYER1
  2
Group11
 70
     0
 10
0
 20
0
 30
0
  0
LINE
  8
LAYER1
  6
CONTINUOUS
 62
     7
 10
1.1944
 20
9.2062
 30
0
 11
1.1944
 21
8.3312
 31
0
  0
LINE
  8
LAYER1
  6
CONTINUOUS
 62
     7
 10
1.1806
 20
8.3312
 30
0
 11
1.1944
 21
8.3312
 31
0
  0
LINE
  8
LAYER1
  6
CONTINUOUS
 62
     7
 10
1.1389
 20
8.4145
 30
0
 11
1.1944
 21
8.47
 31
0
  0
LINE
  8
LAYER1
  6
CONTINUOUS
 62
     7
 10
1.1389
 20
8.5395
 30
0
 11
1.1944
 21
8.595
 31
0
  0
LINE
  8
LAYER1
  6
CONTINUOUS
 62
     7
 10
1.1389
 20
8.6784
 30
0
 11
1.1944
 21
8.7339
 31
0
  0
LINE
  8
LAYER1
  6
CONTINUOUS
 62
     7
 10
1.1389
 20
8.8173
 30
0
 11
1.1944
 21
8.8589
 31
0
  0
LINE
  8
LAYER1
  6
CONTINUOUS
 62
     7
 10
1.1389
 20
8.9423
 30
0
 11
1.1944
 21
8.9978
 31
0
  0
LINE
  8
LAYER1
  6
CONTINUOUS
 62
     7
 10
1.1389
 20
9.0812
 30
0
 11
1.1944
 21
9.1228
 31
0
  0
LINE
  8
LAYER1
  6
CONTINUOUS
 62
     7
 10
1.3472
 20
9.2895
 30
0
 11
1.4167
 21
9.345
 31
0
  0
LINE
  8
LAYER1
  6
CONTINUOUS
 62
     7
 10
1.1389
 20
9.2062
 30
0
 11
1.2778
 21
9.345
 31
0
  0
LINE
  8
LAYER1
  6
CONTINUOUS
 62
     7
 10
1.0694
 20
9.2756
 30
0
 11
1.1389
 21
9.345
 31
0
  0
LINE
  8
LAYER1
  6
CONTINUOUS
 62
     7
 10
0.9583
 20
9.2895
 30
0
 11
1.0139
 21
9.345
 31
0
  0
LINE
  8
LAYER1
  6
CONTINUOUS
 62
     7
 10
0.8472
 20
9.3173
 30
0
 11
0.875
 21
9.345
 31
0
  0
LINE
  8
LAYER1
  6
CONTINUOUS
 62
     7
 10
1.1389
 20
8.3728
 30
0
 11
1.1944
 21
8.4145
 31
0
  0
LINE
  8
LAYER1
  6
CONTINUOUS
 62
     7
 10
1.1389
 20
8.4978
 30
0
 11
1.1944
 21
8.5534
 31
0
  0
LINE
  8
LAYER1
  6
CONTINUOUS
 62
     7
 10
1.1389
 20
8.6367
 30
0
 11
1.1944
 21
8.6923
 31
0
  0
LINE
  8
LAYER1
  6
CONTINUOUS
 62
     7
 10
1.1389
 20
8.7617
 30
0
 11
1.1944
 21
8.8173
 31
0
  0
LINE
  8
LAYER1
  6
CONTINUOUS
 62
     7
 10
1.1389
 20
8.9006
 30
0
 11
1.1944
 21
8.9562
 31
0
  0
LINE
  8
LAYER1
  6
CONTINUOUS
 62
     7
 10
1.1389
 20
9.0395
 30
0
 11
1.1944
 21
9.0812
 31
0
  0
LINE
  8
LAYER1
  6
CONTINUOUS
 62
     7
 10
1.4028
 20
9.2895
 30
0
 11
1.4583
 21
9.345
 31
0
  0
LINE
  8
LAYER1
  6
CONTINUOUS
 62
     7
 10
1.1389
 20
9.1645
 30
0
 11
1.1944
 21
9.22
 31
0
  0
LINE
  8
LAYER1
  6
CONTINUOUS
 62
     7
 10
1.25
 20
9.2756
 30
0
 11
1.3194
 21
9.345
 31
0
  0
LINE
  8
LAYER1
  6
CONTINUOUS
 62
     7
 10
1.1111
 20
9.2617
 30
0
 11
1.1944
 21
9.345
 31
0
  0
LINE
  8
LAYER1
  6
CONTINUOUS
 62
     7
 10
0.9861
 20
9.2895
 30
0
 11
1.0556
 21
9.345
 31
0
  0
ENDBLK
  8
LAYER1
  0
BLOCK
  8
LAYER1
  2
Group12
 70
     0
 10
0
 20
0
 30
0
  0
INSERT
  8
LAYER1
  2
Group10
 10
0
 20
0
 30
0
  0
INSERT
  8
LAYER1
  2
Group11
 10
0
 20
0
 30
0
  0
ENDBLK
  8
LAYER1
  0
BLOCK
  8
LAYER1
  2
Group13
 70
     0
 10
0
 20
0
 30
0
  0
LINE
  8
LAYER1
  6
CONTINUOUS
 62
     7
 10
0.875
 20
9.2895
 30
0
 11
0.9167
 21
9.345
 31
0
  0
LINE
  8
LAYER1
  6
CONTINUOUS
 62
     7
 10
0.8611
 20
6.845
 30
0
 11
1.4583
 21
6.845
 31
0
  0
POLYLINE
  8
LAYER1
  6
CONTINUOUS
 62
     7
 66
     1
 70
     0
 40
0.001
 41
0.001
  0
VERTEX
  8
LAYER1
 10
1.0694
 20
6.7756
 30
0
 70
     0
  0
VERTEX
  8
LAYER1
 10
1.0833
 20
6.7756
 30
0
 70
     0
  0
VERTEX
  8
LAYER1
 10
1.1111
 20
6.7617
 30
0
 70
     0
  0
VERTEX
  8
LAYER1
 10
1.1111
 20
6.7478
 30
0
 70
     0
  0
VERTEX
  8
LAYER1
 10
1.125
 20
6.7339
 30
0
 70
     0
  0
VERTEX
  8
LAYER1
 10
1.1389
 20
6.7062
 30
0
 70
     0
  0
VERTEX
  8
LAYER1
 10
1.1389
 20
6.6923
 30
0
 70
     0
  0
SEQEND
  0
POLYLINE
  8
LAYER1
  6
CONTINUOUS
 62
     7
 66
     1
 70
     0
 40
0.001
 41
0.001
  0
VERTEX
  8
LAYER1
 10
1.1944
 20
6.6923
 30
0
 70
     0
  0
VERTEX
  8
LAYER1
 10
1.1944
 20
6.7062
 30
0
 70
     0
  0
VERTEX
  8
LAYER1
 10
1.2083
 20
6.7478
 30
0
 70
     0
  0
VERTEX
  8
LAYER1
 10
1.2083
 20
6.7478
 30
0
 70
     0
  0
VERTEX
  8
LAYER1
 10
1.2222
 20
6.7617
 30
0
 70
     0
  0
VERTEX
  8
LAYER1
 10
1.25
 20
6.7756
 30
0
 70
     0
  0
VERTEX
  8
LAYER1
 10
1.2639
 20
6.7756
 30
0
 70
     0
  0
SEQEND
  0
POLYLINE
  8
LAYER1
  6
CONTINUOUS
 62
     7
 66
     1
 70
     0
 40
0.001
 41
0.001
  0
VERTEX
  8
LAYER1
 10
1.4583
 20
6.8173
 30
0
 70
     0
  0
VERTEX
  8
LAYER1
 10
1.4583
 20
6.8034
 30
0
 70
     0
  0
VERTEX
  8
LAYER1
 10
1.4583
 20
6.7895
 30
0
 70
     0
  0
VERTEX
  8
LAYER1
 10
1.4583
 20
6.7895
 30
0
 70
     0
  0
VERTEX
  8
LAYER1
 10
1.4583
 20
6.7895
 30
0
 70
     0
  0
VERTEX
  8
LAYER1
 10
1.4444
 20
6.7895
 30
0
 70
     0
  0
VERTEX
  8
LAYER1
 10
1.4306
 20
6.7895
 30
0
 70
     0
  0
SEQEND
  0
LINE
  8
LAYER1
  6
CONTINUOUS
 62
     7
 10
1.4583
 20
6.8173
 30
0
 11
1.4583
 21
6.845
 31
0
  0
LINE
  8
LAYER1
  6
CONTINUOUS
 62
     7
 10
1.2639
 20
6.7756
 30
0
 11
1.4306
 21
6.7895
 31
0
  0
POLYLINE
  8
LAYER1
  6
CONTINUOUS
 62
     7
 66
     1
 70
     0
 40
0.001
 41
0.001
  0
VERTEX
  8
LAYER1
 10
0.9028
 20
6.7895
 30
0
 70
     0
  0
VERTEX
  8
LAYER1
 10
0.9028
 20
6.7895
 30
0
 70
     0
  0
VERTEX
  8
LAYER1
 10
0.8889
 20
6.7895
 30
0
 70
     0
  0
VERTEX
  8
LAYER1
 10
0.875
 20
6.7895
 30
0
 70
     0
  0
VERTEX
  8
LAYER1
 10
0.875
 20
6.7895
 30
0
 70
     0
  0
VERTEX
  8
LAYER1
 10
0.8611
 20
6.8034
 30
0
 70
     0
  0
VERTEX
  8
LAYER1
 10
0.8611
 20
6.8173
 30
0
 70
     0
  0
SEQEND
  0
LINE
  8
LAYER1
  6
CONTINUOUS
 62
     7
 10
0.8611
 20
6.845
 30
0
 11
0.8611
 21
6.8173
 31
0
  0
LINE
  8
LAYER1
  6
CONTINUOUS
 62
     7
 10
1.0694
 20
6.7756
 30
0
 11
0.9028
 21
6.7895
 31
0
  0
LINE
  8
LAYER1
  6
CONTINUOUS
 62
     7
 10
1.1389
 20
5.845
 30
0
 11
1.1944
 21
5.845
 31
0
  0
LINE
  8
LAYER1
  6
CONTINUOUS
 62
     7
 10
1.1944
 20
6.6923
 30
0
 11
1.1944
 21
5.845
 31
0
  0
ENDBLK
  8
LAYER1
  0
BLOCK
  8
LAYER1
  2
Group14
 70
     0
 10
0
 20
0
 30
0
  0
LINE
  8
LAYER1
  6
CONTINUOUS
 62
     7
 10
1.1389
 20
6.6923
 30
0
 11
1.1389
 21
5.845
 31
0
  0
LINE
  8
LAYER1
  6
CONTINUOUS
 62
     7
 10
1.1389
 20
5.8589
 30
0
 11
1.1944
 21
5.9145
 31
0
  0
LINE
  8
LAYER1
  6
CONTINUOUS
 62
     7
 10
1.1389
 20
5.9978
 30
0
 11
1.1944
 21
6.0395
 31
0
  0
LINE
  8
LAYER1
  6
CONTINUOUS
 62
     7
 10
1.1389
 20
6.1228
 30
0
 11
1.1944
 21
6.1784
 31
0
  0
LINE
  8
LAYER1
  6
CONTINUOUS
 62
     7
 10
1.1389
 20
6.2617
 30
0
 11
1.1944
 21
6.3173
 31
0
  0
LINE
  8
LAYER1
  6
CONTINUOUS
 62
     7
 10
1.1389
 20
6.3867
 30
0
 11
1.1944
 21
6.4423
 31
0
  0
LINE
  8
LAYER1
  6
CONTINUOUS
 62
     7
 10
1.1389
 20
6.5256
 30
0
 11
1.1944
 21
6.5812
 31
0
  0
LINE
  8
LAYER1
  6
CONTINUOUS
 62
     7
 10
1.4028
 20
6.7895
 30
0
 11
1.4583
 21
6.845
 31
0
  0
LINE
  8
LAYER1
  6
CONTINUOUS
 62
     7
 10
1.1389
 20
6.6645
 30
0
 11
1.1944
 21
6.7062
 31
0
  0
LINE
  8
LAYER1
  6
CONTINUOUS
 62
     7
 10
1.25
 20
6.7756
 30
0
 11
1.3194
 21
6.845
 31
0
  0
LINE
  8
LAYER1
  6
CONTINUOUS
 62
     7
 10
1.1111
 20
6.7617
 30
0
 11
1.1806
 21
6.845
 31
0
  0
LINE
  8
LAYER1
  6
CONTINUOUS
 62
     7
 10
0.9861
 20
6.7756
 30
0
 11
1.0556
 21
6.845
 31
0
  0
LINE
  8
LAYER1
  6
CONTINUOUS
 62
     7
 10
0.875
 20
6.7895
 30
0
 11
0.9167
 21
6.845
 31
0
  0
LINE
  8
LAYER1
  6
CONTINUOUS
 62
     7
 10
1.1528
 20
5.845
 30
0
 11
1.1944
 21
5.8728
 31
0
  0
LINE
  8
LAYER1
  6
CONTINUOUS
 62
     7
 10
1.1389
 20
5.9562
 30
0
 11
1.1944
 21
5.9978
 31
0
  0
LINE
  8
LAYER1
  6
CONTINUOUS
 62
     7
 10
1.1389
 20
6.0812
 30
0
 11
1.1944
 21
6.1367
 31
0
  0
LINE
  8
LAYER1
  6
CONTINUOUS
 62
     7
 10
1.1389
 20
6.22
 30
0
 11
1.1944
 21
6.2617
 31
0
  0
LINE
  8
LAYER1
  6
CONTINUOUS
 62
     7
 10
1.1389
 20
6.345
 30
0
 11
1.1944
 21
6.4006
 31
0
  0
LINE
  8
LAYER1
  6
CONTINUOUS
 62
     7
 10
1.1389
 20
6.4839
 30
0
 11
1.1944
 21
6.5395
 31
0
  0
LINE
  8
LAYER1
  6
CONTINUOUS
 62
     7
 10
1.1389
 20
6.6089
 30
0
 11
1.1944
 21
6.6645
 31
0
  0
LINE
  8
LAYER1
  6
CONTINUOUS
 62
     7
 10
1.3056
 20
6.7756
 30
0
 11
1.3611
 21
6.845
 31
0
  0
LINE
  8
LAYER1
  6
CONTINUOUS
 62
     7
 10
1.125
 20
6.7339
 30
0
 11
1.2361
 21
6.845
 31
0
  0
LINE
  8
LAYER1
  6
CONTINUOUS
 62
     7
 10
1.0278
 20
6.7756
 30
0
 11
1.0972
 21
6.845
 31
0
  0
ENDBLK
  8
LAYER1
  0
BLOCK
  8
LAYER1
  2
Group15
 70
     0
 10
0
 20
0
 30
0
  0
INSERT
  8
LAYER1
  2
Group13
 10
0
 20
0
 30
0
  0
INSERT
  8
LAYER1
  2
Group14
 10
0
 20
0
 30
0
  0
ENDBLK
  8
LAYER1
  0
BLOCK
  8
LAYER1
  2
Group16
 70
     0
 10
0
 20
0
 30
0
  0
LINE
  8
LAYER1
  6
CONTINUOUS
 62
     7
 10
0.9167
 20
6.7895
 30
0
 11
0.9583
 21
6.845
 31
0
  0
LINE
  8
LAYER1
  6
CONTINUOUS
 62
     7
 10
0.875
 20
3.97
 30
0
 11
1.4583
 21
3.97
 31
0
  0
POLYLINE
  8
LAYER1
  6
CONTINUOUS
 62
     7
 66
     1
 70
     0
 40
0.001
 41
0.001
  0
VERTEX
  8
LAYER1
 10
1.1944
 20
3.845
 30
0
 70
     0
  0
VERTEX
  8
LAYER1
 10
1.1944
 20
3.8589
 30
0
 70
     0
  0
VERTEX
  8
LAYER1
 10
1.2083
 20
3.8867
 30
0
 70
     0
  0
VERTEX
  8
LAYER1
 10
1.2083
 20
3.8867
 30
0
 70
     0
  0
VERTEX
  8
LAYER1
 10
1.2222
 20
3.9006
 30
0
 70
     0
  0
VERTEX
  8
LAYER1
 10
1.25
 20
3.9145
 30
0
 70
     0
  0
VERTEX
  8
LAYER1
 10
1.25
 20
3.9145
 30
0
 70
     0
  0
SEQEND
  0
POLYLINE
  8
LAYER1
  6
CONTINUOUS
 62
     7
 66
     1
 70
     0
 40
0.001
 41
0.001
  0
VERTEX
  8
LAYER1
 10
1.0694
 20
3.9145
 30
0
 70
     0
  0
VERTEX
  8
LAYER1
 10
1.0833
 20
3.9145
 30
0
 70
     0
  0
VERTEX
  8
LAYER1
 10
1.1111
 20
3.9006
 30
0
 70
     0
  0
VERTEX
  8
LAYER1
 10
1.1111
 20
3.8867
 30
0
 70
     0
  0
VERTEX
  8
LAYER1
 10
1.125
 20
3.8728
 30
0
 70
     0
  0
VERTEX
  8
LAYER1
 10
1.1389
 20
3.8589
 30
0
 70
     0
  0
VERTEX
  8
LAYER1
 10
1.1389
 20
3.845
 30
0
 70
     0
  0
SEQEND
  0
POLYLINE
  8
LAYER1
  6
CONTINUOUS
 62
     7
 66
     1
 70
     0
 40
0.001
 41
0.001
  0
VERTEX
  8
LAYER1
 10
0.9028
 20
3.9284
 30
0
 70
     0
  0
VERTEX
  8
LAYER1
 10
0.9028
 20
3.9284
 30
0
 70
     0
  0
VERTEX
  8
LAYER1
 10
0.8889
 20
3.9284
 30
0
 70
     0
  0
VERTEX
  8
LAYER1
 10
0.875
 20
3.9423
 30
0
 70
     0
  0
VERTEX
  8
LAYER1
 10
0.875
 20
3.9562
 30
0
 70
     0
  0
SEQEND
  0
LINE
  8
LAYER1
  6
CONTINUOUS
 62
     7
 10
0.875
 20
3.97
 30
0
 11
0.875
 21
3.9562
 31
0
  0
LINE
  8
LAYER1
  6
CONTINUOUS
 62
     7
 10
1.0694
 20
3.9145
 30
0
 11
0.9028
 21
3.9284
 31
0
  0
POLYLINE
  8
LAYER1
  6
CONTINUOUS
 62
     7
 66
     1
 70
     0
 40
0.001
 41
0.001
  0
VERTEX
  8
LAYER1
 10
1.4583
 20
3.9562
 30
0
 70
     0
  0
VERTEX
  8
LAYER1
 10
1.4583
 20
3.9423
 30
0
 70
     0
  0
VERTEX
  8
LAYER1
 10
1.4583
 20
3.9423
 30
0
 70
     0
  0
VERTEX
  8
LAYER1
 10
1.4444
 20
3.9423
 30
0
 70
     0
  0
VERTEX
  8
LAYER1
 10
1.4444
 20
3.9284
 30
0
 70
     0
  0
VERTEX
  8
LAYER1
 10
1.4444
 20
3.9284
 30
0
 70
     0
  0
VERTEX
  8
LAYER1
 10
1.4306
 20
3.9284
 30
0
 70
     0
  0
SEQEND
  0
LINE
  8
LAYER1
  6
CONTINUOUS
 62
     7
 10
1.4583
 20
3.9562
 30
0
 11
1.4583
 21
3.97
 31
0
  0
LINE
  8
LAYER1
  6
CONTINUOUS
 62
     7
 10
1.25
 20
3.9145
 30
0
 11
1.4306
 21
3.9284
 31
0
  0
LINE
  8
LAYER1
  6
CONTINUOUS
 62
     7
 10
1.1389
 20
3.1228
 30
0
 11
1.1944
 21
3.1228
 31
0
  0
LINE
  8
LAYER1
  6
CONTINUOUS
 62
     7
 10
1.1944
 20
3.845
 30
0
 11
1.1944
 21
3.1228
 31
0
  0
ENDBLK
  8
LAYER1
  0
BLOCK
  8
LAYER1
  2
Group17
 70
     0
 10
0
 20
0
 30
0
  0
LINE
  8
LAYER1
  6
CONTINUOUS
 62
     7
 10
1.1389
 20
3.845
 30
0
 11
1.1389
 21
3.1228
 31
0
  0
LINE
  8
LAYER1
  6
CONTINUOUS
 62
     7
 10
1.1528
 20
3.1228
 30
0
 11
1.1944
 21
3.1645
 31
0
  0
LINE
  8
LAYER1
  6
CONTINUOUS
 62
     7
 10
1.1389
 20
3.2339
 30
0
 11
1.1944
 21
3.2895
 31
0
  0
LINE
  8
LAYER1
  6
CONTINUOUS
 62
     7
 10
1.1389
 20
3.3728
 30
0
 11
1.1944
 21
3.4284
 31
0
  0
LINE
  8
LAYER1
  6
CONTINUOUS
 62
     7
 10
1.1389
 20
3.5117
 30
0
 11
1.1944
 21
3.5673
 31
0
  0
LINE
  8
LAYER1
  6
CONTINUOUS
 62
     7
 10
1.1389
 20
3.6367
 30
0
 11
1.1944
 21
3.6923
 31
0
  0
LINE
  8
LAYER1
  6
CONTINUOUS
 62
     7
 10
1.4306
 20
3.9284
 30
0
 11
1.4583
 21
3.9562
 31
0
  0
LINE
  8
LAYER1
  6
CONTINUOUS
 62
     7
 10
1.1389
 20
3.7756
 30
0
 11
1.1944
 21
3.8312
 31
0
  0
LINE
  8
LAYER1
  6
CONTINUOUS
 62
     7
 10
1.2778
 20
3.9145
 30
0
 11
1.3333
 21
3.97
 31
0
  0
LINE
  8
LAYER1
  6
CONTINUOUS
 62
     7
 10
1.125
 20
3.8867
 30
0
 11
1.2083
 21
3.97
 31
0
  0
LINE
  8
LAYER1
  6
CONTINUOUS
 62
     7
 10
1.0139
 20
3.9145
 30
0
 11
1.0694
 21
3.97
 31
0
  0
LINE
  8
LAYER1
  6
CONTINUOUS
 62
     7
 10
0.8889
 20
3.9284
 30
0
 11
0.9444
 21
3.97
 31
0
  0
LINE
  8
LAYER1
  6
CONTINUOUS
 62
     7
 10
1.1389
 20
3.1923
 30
0
 11
1.1944
 21
3.2478
 31
0
  0
LINE
  8
LAYER1
  6
CONTINUOUS
 62
     7
 10
1.1389
 20
3.3312
 30
0
 11
1.1944
 21
3.3867
 31
0
  0
LINE
  8
LAYER1
  6
CONTINUOUS
 62
     7
 10
1.1389
 20
3.4562
 30
0
 11
1.1944
 21
3.5117
 31
0
  0
LINE
  8
LAYER1
  6
CONTINUOUS
 62
     7
 10
1.1389
 20
3.595
 30
0
 11
1.1944
 21
3.6506
 31
0
  0
LINE
  8
LAYER1
  6
CONTINUOUS
 62
     7
 10
1.1389
 20
3.72
 30
0
 11
1.1944
 21
3.7756
 31
0
  0
LINE
  8
LAYER1
  6
CONTINUOUS
 62
     7
 10
1.3333
 20
3.9145
 30
0
 11
1.3889
 21
3.97
 31
0
  0
LINE
  8
LAYER1
  6
CONTINUOUS
 62
     7
 10
1.1389
 20
3.8589
 30
0
 11
1.25
 21
3.97
 31
0
  0
LINE
  8
LAYER1
  6
CONTINUOUS
 62
     7
 10
1.0556
 20
3.9145
 30
0
 11
1.1111
 21
3.97
 31
0
  0
ENDBLK
  8
LAYER1
  0
BLOCK
  8
LAYER1
  2
Group18
 70
     0
 10
0
 20
0
 30
0
  0
INSERT
  8
LAYER1
  2
Group16
 10
0
 20
0
 30
0
  0
INSERT
  8
LAYER1
  2
Group17
 10
0
 20
0
 30
0
  0
ENDBLK
  8
LAYER1
  0
BLOCK
  8
LAYER1
  2
Group19
 70
     0
 10
0
 20
0
 30
0
  0
LINE
  8
LAYER1
  6
CONTINUOUS
 62
     7
 10
0.9306
 20
3.9284
 30
0
 11
0.9861
 21
3.97
 31
0
  0
LINE
  8
LAYER1
  6
CONTINUOUS
 62
     7
 10
4.7222
 20
9.095
 30
0
 11
5.1528
 21
9.095
 31
0
  0
POLYLINE
  8
LAYER1
  6
CONTINUOUS
 62
     7
 66
     1
 70
     0
 40
0.001
 41
0.001
  0
VERTEX
  8
LAYER1
 10
4.8611
 20
9.0256
 30
0
 70
     0
  0
VERTEX
  8
LAYER1
 10
4.875
 20
9.0256
 30
0
 70
     0
  0
VERTEX
  8
LAYER1
 10
4.9028
 20
9.0117
 30
0
 70
     0
  0
VERTEX
  8
LAYER1
 10
4.9028
 20
9.0117
 30
0
 70
     0
  0
VERTEX
  8
LAYER1
 10
4.9167
 20
8.9978
 30
0
 70
     0
  0
VERTEX
  8
LAYER1
 10
4.9167
 20
8.9839
 30
0
 70
     0
  0
VERTEX
  8
LAYER1
 10
4.9167
 20
8.97
 30
0
 70
     0
  0
SEQEND
  0
POLYLINE
  8
LAYER1
  6
CONTINUOUS
 62
     7
 66
     1
 70
     0
 40
0.001
 41
0.001
  0
VERTEX
  8
LAYER1
 10
4.9583
 20
8.97
 30
0
 70
     0
  0
VERTEX
  8
LAYER1
 10
4.9583
 20
8.9839
 30
0
 70
     0
  0
VERTEX
  8
LAYER1
 10
4.9722
 20
9.0117
 30
0
 70
     0
  0
VERTEX
  8
LAYER1
 10
4.9722
 20
9.0117
 30
0
 70
     0
  0
VERTEX
  8
LAYER1
 10
4.9722
 20
9.0117
 30
0
 70
     0
  0
VERTEX
  8
LAYER1
 10
5
 20
9.0256
 30
0
 70
     0
  0
VERTEX
  8
LAYER1
 10
5.0139
 20
9.0256
 30
0
 70
     0
  0
SEQEND
  0
POLYLINE
  8
LAYER1
  6
CONTINUOUS
 62
     7
 66
     1
 70
     0
 40
0.001
 41
0.001
  0
VERTEX
  8
LAYER1
 10
4.75
 20
9.0395
 30
0
 70
     0
  0
VERTEX
  8
LAYER1
 10
4.75
 20
9.0395
 30
0
 70
     0
  0
VERTEX
  8
LAYER1
 10
4.7361
 20
9.0395
 30
0
 70
     0
  0
VERTEX
  8
LAYER1
 10
4.7222
 20
9.0534
 30
0
 70
     0
  0
VERTEX
  8
LAYER1
 10
4.7222
 20
9.0673
 30
0
 70
     0
  0
SEQEND
  0
LINE
  8
LAYER1
  6
CONTINUOUS
 62
     7
 10
4.8611
 20
9.0256
 30
0
 11
4.75
 21
9.0395
 31
0
  0
LINE
  8
LAYER1
  6
CONTINUOUS
 62
     7
 10
4.7222
 20
9.095
 30
0
 11
4.7222
 21
9.0673
 31
0
  0
POLYLINE
  8
LAYER1
  6
CONTINUOUS
 62
     7
 66
     1
 70
     0
 40
0.001
 41
0.001
  0
VERTEX
  8
LAYER1
 10
5.1528
 20
9.0673
 30
0
 70
     0
  0
VERTEX
  8
LAYER1
 10
5.1528
 20
9.0534
 30
0
 70
     0
  0
VERTEX
  8
LAYER1
 10
5.1528
 20
9.0534
 30
0
 70
     0
  0
VERTEX
  8
LAYER1
 10
5.1389
 20
9.0534
 30
0
 70
     0
  0
VERTEX
  8
LAYER1
 10
5.1389
 20
9.0395
 30
0
 70
     0
  0
VERTEX
  8
LAYER1
 10
5.1389
 20
9.0395
 30
0
 70
     0
  0
VERTEX
  8
LAYER1
 10
5.125
 20
9.0395
 30
0
 70
     0
  0
SEQEND
  0
LINE
  8
LAYER1
  6
CONTINUOUS
 62
     7
 10
5.1528
 20
9.0673
 30
0
 11
5.1528
 21
9.095
 31
0
  0
LINE
  8
LAYER1
  6
CONTINUOUS
 62
     7
 10
5.0139
 20
9.0256
 30
0
 11
5.125
 21
9.0395
 31
0
  0
LINE
  8
LAYER1
  6
CONTINUOUS
 62
     7
 10
4.9167
 20
8.595
 30
0
 11
4.9583
 21
8.595
 31
0
  0
LINE
  8
LAYER1
  6
CONTINUOUS
 62
     7
 10
4.9167
 20
8.97
 30
0
 11
4.9167
 21
8.595
 31
0
  0
ENDBLK
  8
LAYER1
  0
BLOCK
  8
LAYER1
  2
Group20
 70
     0
 10
0
 20
0
 30
0
  0
LINE
  8
LAYER1
  6
CONTINUOUS
 62
     7
 10
4.9583
 20
8.97
 30
0
 11
4.9583
 21
8.595
 31
0
  0
LINE
  8
LAYER1
  6
CONTINUOUS
 62
     7
 10
4.9167
 20
8.6784
 30
0
 11
4.9583
 21
8.72
 31
0
  0
LINE
  8
LAYER1
  6
CONTINUOUS
 62
     7
 10
4.9167
 20
8.8173
 30
0
 11
4.9583
 21
8.845
 31
0
  0
LINE
  8
LAYER1
  6
CONTINUOUS
 62
     7
 10
4.9167
 20
8.9423
 30
0
 11
4.9583
 21
8.9839
 31
0
  0
LINE
  8
LAYER1
  6
CONTINUOUS
 62
     7
 10
5
 20
9.0256
 30
0
 11
5.0556
 21
9.095
 31
0
  0
LINE
  8
LAYER1
  6
CONTINUOUS
 62
     7
 10
4.875
 20
9.0256
 30
0
 11
4.9306
 21
9.095
 31
0
  0
LINE
  8
LAYER1
  6
CONTINUOUS
 62
     7
 10
4.75
 20
9.0395
 30
0
 11
4.7917
 21
9.095
 31
0
  0
LINE
  8
LAYER1
  6
CONTINUOUS
 62
     7
 10
4.9167
 20
8.6367
 30
0
 11
4.9583
 21
8.6784
 31
0
  0
LINE
  8
LAYER1
  6
CONTINUOUS
 62
     7
 10
4.9167
 20
8.7617
 30
0
 11
4.9583
 21
8.8034
 31
0
  0
LINE
  8
LAYER1
  6
CONTINUOUS
 62
     7
 10
4.9167
 20
8.9006
 30
0
 11
4.9583
 21
8.9423
 31
0
  0
LINE
  8
LAYER1
  6
CONTINUOUS
 62
     7
 10
5.0556
 20
9.0395
 30
0
 11
5.1111
 21
9.095
 31
0
  0
LINE
  8
LAYER1
  6
CONTINUOUS
 62
     7
 10
4.9028
 20
9.0117
 30
0
 11
4.9722
 21
9.095
 31
0
  0
ENDBLK
  8
LAYER1
  0
BLOCK
  8
LAYER1
  2
Group21
 70
     0
 10
0
 20
0
 30
0
  0
INSERT
  8
LAYER1
  2
Group19
 10
0
 20
0
 30
0
  0
INSERT
  8
LAYER1
  2
Group20
 10
0
 20
0
 30
0
  0
ENDBLK
  8
LAYER1
  0
BLOCK
  8
LAYER1
  2
Group22
 70
     0
 10
0
 20
0
 30
0
  0
LINE
  8
LAYER1
  6
CONTINUOUS
 62
     7
 10
4.7917
 20
9.0395
 30
0
 11
4.8333
 21
9.095
 31
0
  0
LINE
  8
LAYER1
  6
CONTINUOUS
 62
     7
 10
4.7222
 20
6.595
 30
0
 11
5.1389
 21
6.595
 31
0
  0
POLYLINE
  8
LAYER1
  6
CONTINUOUS
 62
     7
 66
     1
 70
     0
 40
0.001
 41
0.001
  0
VERTEX
  8
LAYER1
 10
4.875
 20
6.5395
 30
0
 70
     0
  0
VERTEX
  8
LAYER1
 10
4.8889
 20
6.5395
 30
0
 70
     0
  0
VERTEX
  8
LAYER1
 10
4.9028
 20
6.5256
 30
0
 70
     0
  0
VERTEX
  8
LAYER1
 10
4.9028
 20
6.5256
 30
0
 70
     0
  0
VERTEX
  8
LAYER1
 10
4.9167
 20
6.5117
 30
0
 70
     0
  0
VERTEX
  8
LAYER1
 10
4.9167
 20
6.4978
 30
0
 70
     0
  0
VERTEX
  8
LAYER1
 10
4.9167
 20
6.4839
 30
0
 70
     0
  0
SEQEND
  0
POLYLINE
  8
LAYER1
  6
CONTINUOUS
 62
     7
 66
     1
 70
     0
 40
0.001
 41
0.001
  0
VERTEX
  8
LAYER1
 10
4.9444
 20
6.4839
 30
0
 70
     0
  0
VERTEX
  8
LAYER1
 10
4.9444
 20
6.4978
 30
0
 70
     0
  0
VERTEX
  8
LAYER1
 10
4.9583
 20
6.5117
 30
0
 70
     0
  0
VERTEX
  8
LAYER1
 10
4.9722
 20
6.5256
 30
0
 70
     0
  0
VERTEX
  8
LAYER1
 10
4.9722
 20
6.5256
 30
0
 70
     0
  0
VERTEX
  8
LAYER1
 10
5
 20
6.5395
 30
0
 70
     0
  0
VERTEX
  8
LAYER1
 10
5
 20
6.5395
 30
0
 70
     0
  0
SEQEND
  0
POLYLINE
  8
LAYER1
  6
CONTINUOUS
 62
     7
 66
     1
 70
     0
 40
0.001
 41
0.001
  0
VERTEX
  8
LAYER1
 10
5.1389
 20
6.5812
 30
0
 70
     0
  0
VERTEX
  8
LAYER1
 10
5.1389
 20
6.5673
 30
0
 70
     0
  0
VERTEX
  8
LAYER1
 10
5.1389
 20
6.5534
 30
0
 70
     0
  0
VERTEX
  8
LAYER1
 10
5.1389
 20
6.5534
 30
0
 70
     0
  0
VERTEX
  8
LAYER1
 10
5.1389
 20
6.5534
 30
0
 70
     0
  0
VERTEX
  8
LAYER1
 10
5.125
 20
6.5534
 30
0
 70
     0
  0
VERTEX
  8
LAYER1
 10
5.1111
 20
6.5534
 30
0
 70
     0
  0
SEQEND
  0
LINE
  8
LAYER1
  6
CONTINUOUS
 62
     7
 10
5
 20
6.5395
 30
0
 11
5.1111
 21
6.5534
 31
0
  0
LINE
  8
LAYER1
  6
CONTINUOUS
 62
     7
 10
5.1389
 20
6.5812
 30
0
 11
5.1389
 21
6.595
 31
0
  0
POLYLINE
  8
LAYER1
  6
CONTINUOUS
 62
     7
 66
     1
 70
     0
 40
0.001
 41
0.001
  0
VERTEX
  8
LAYER1
 10
4.75
 20
6.5534
 30
0
 70
     0
  0
VERTEX
  8
LAYER1
 10
4.7361
 20
6.5534
 30
0
 70
     0
  0
VERTEX
  8
LAYER1
 10
4.7361
 20
6.5534
 30
0
 70
     0
  0
VERTEX
  8
LAYER1
 10
4.7222
 20
6.5673
 30
0
 70
     0
  0
VERTEX
  8
LAYER1
 10
4.7222
 20
6.5812
 30
0
 70
     0
  0
SEQEND
  0
LINE
  8
LAYER1
  6
CONTINUOUS
 62
     7
 10
4.7222
 20
6.595
 30
0
 11
4.7222
 21
6.5812
 31
0
  0
LINE
  8
LAYER1
  6
CONTINUOUS
 62
     7
 10
4.875
 20
6.5395
 30
0
 11
4.75
 21
6.5534
 31
0
  0
LINE
  8
LAYER1
  6
CONTINUOUS
 62
     7
 10
4.9167
 20
6.095
 30
0
 11
4.9444
 21
6.095
 31
0
  0
LINE
  8
LAYER1
  6
CONTINUOUS
 62
     7
 10
4.9167
 20
6.4839
 30
0
 11
4.9167
 21
6.095
 31
0
  0
ENDBLK
  8
LAYER1
  0
BLOCK
  8
LAYER1
  2
Group23
 70
     0
 10
0
 20
0
 30
0
  0
LINE
  8
LAYER1
  6
CONTINUOUS
 62
     7
 10
4.9444
 20
6.4839
 30
0
 11
4.9444
 21
6.095
 31
0
  0
LINE
  8
LAYER1
  6
CONTINUOUS
 62
     7
 10
4.9167
 20
6.1784
 30
0
 11
4.9444
 21
6.2062
 31
0
  0
LINE
  8
LAYER1
  6
CONTINUOUS
 62
     7
 10
4.9167
 20
6.3034
 30
0
 11
4.9444
 21
6.3312
 31
0
  0
LINE
  8
LAYER1
  6
CONTINUOUS
 62
     7
 10
4.9167
 20
6.4423
 30
0
 11
4.9444
 21
6.47
 31
0
  0
LINE
  8
LAYER1
  6
CONTINUOUS
 62
     7
 10
5.0278
 20
6.5395
 30
0
 11
5.0694
 21
6.595
 31
0
  0
LINE
  8
LAYER1
  6
CONTINUOUS
 62
     7
 10
4.8889
 20
6.5395
 30
0
 11
4.9306
 21
6.595
 31
0
  0
LINE
  8
LAYER1
  6
CONTINUOUS
 62
     7
 10
4.7639
 20
6.5534
 30
0
 11
4.8056
 21
6.595
 31
0
  0
LINE
  8
LAYER1
  6
CONTINUOUS
 62
     7
 10
4.9167
 20
6.1367
 30
0
 11
4.9444
 21
6.1645
 31
0
  0
LINE
  8
LAYER1
  6
CONTINUOUS
 62
     7
 10
4.9167
 20
6.2617
 30
0
 11
4.9444
 21
6.2895
 31
0
  0
LINE
  8
LAYER1
  6
CONTINUOUS
 62
     7
 10
4.9167
 20
6.4006
 30
0
 11
4.9444
 21
6.4284
 31
0
  0
LINE
  8
LAYER1
  6
CONTINUOUS
 62
     7
 10
5.0694
 20
6.5534
 30
0
 11
5.1111
 21
6.595
 31
0
  0
LINE
  8
LAYER1
  6
CONTINUOUS
 62
     7
 10
4.9167
 20
6.5256
 30
0
 11
4.9861
 21
6.595
 31
0
  0
ENDBLK
  8
LAYER1
  0
BLOCK
  8
LAYER1
  2
Group24
 70
     0
 10
0
 20
0
 30
0
  0
INSERT
  8
LAYER1
  2
Group22
 10
0
 20
0
 30
0
  0
INSERT
  8
LAYER1
  2
Group23
 10
0
 20
0
 30
0
  0
ENDBLK
  8
LAYER1
  0
BLOCK
  8
LAYER1
  2
Group25
 70
     0
 10
0
 20
0
 30
0
  0
LINE
  8
LAYER1
  6
CONTINUOUS
 62
     7
 10
4.8056
 20
6.5395
 30
0
 11
4.8472
 21
6.595
 31
0
  0
LINE
  8
LAYER1
  6
CONTINUOUS
 62
     7
 10
4.7361
 20
3.7617
 30
0
 11
5.125
 21
3.7617
 31
0
  0
POLYLINE
  8
LAYER1
  6
CONTINUOUS
 62
     7
 66
     1
 70
     0
 40
0.001
 41
0.001
  0
VERTEX
  8
LAYER1
 10
4.875
 20
3.7062
 30
0
 70
     0
  0
VERTEX
  8
LAYER1
 10
4.8889
 20
3.7062
 30
0
 70
     0
  0
VERTEX
  8
LAYER1
 10
4.9028
 20
3.6923
 30
0
 70
     0
  0
VERTEX
  8
LAYER1
 10
4.9028
 20
3.6923
 30
0
 70
     0
  0
VERTEX
  8
LAYER1
 10
4.9167
 20
3.6784
 30
0
 70
     0
  0
VERTEX
  8
LAYER1
 10
4.9167
 20
3.6645
 30
0
 70
     0
  0
VERTEX
  8
LAYER1
 10
4.9167
 20
3.6645
 30
0
 70
     0
  0
SEQEND
  0
POLYLINE
  8
LAYER1
  6
CONTINUOUS
 62
     7
 66
     1
 70
     0
 40
0.001
 41
0.001
  0
VERTEX
  8
LAYER1
 10
4.9444
 20
3.6645
 30
0
 70
     0
  0
VERTEX
  8
LAYER1
 10
4.9444
 20
3.6645
 30
0
 70
     0
  0
VERTEX
  8
LAYER1
 10
4.9583
 20
3.6923
 30
0
 70
     0
  0
VERTEX
  8
LAYER1
 10
4.9583
 20
3.6923
 30
0
 70
     0
  0
VERTEX
  8
LAYER1
 10
4.9583
 20
3.6923
 30
0
 70
     0
  0
VERTEX
  8
LAYER1
 10
4.9861
 20
3.7062
 30
0
 70
     0
  0
VERTEX
  8
LAYER1
 10
5
 20
3.7062
 30
0
 70
     0
  0
SEQEND
  0
POLYLINE
  8
LAYER1
  6
CONTINUOUS
 62
     7
 66
     1
 70
     0
 40
0.001
 41
0.001
  0
VERTEX
  8
LAYER1
 10
4.7615
 20
3.7063
 30
0
 70
     0
  0
VERTEX
  8
LAYER1
 10
4.7434
 20
3.7152
 30
0
 70
     0
  0
VERTEX
  8
LAYER1
 10
4.7361
 20
3.7339
 30
0
 70
     0
  0
SEQEND
  0
LINE
  8
LAYER1
  6
CONTINUOUS
 62
     7
 10
4.875
 20
3.7062
 30
0
 11
4.7639
 21
3.72
 31
0
  0
LINE
  8
LAYER1
  6
CONTINUOUS
 62
     7
 10
4.7361
 20
3.7617
 30
0
 11
4.7361
 21
3.7478
 31
0
  0
POLYLINE
  8
LAYER1
  6
CONTINUOUS
 62
     7
 66
     1
 70
     0
 40
0.001
 41
0.001
  0
VERTEX
  8
LAYER1
 10
5.125
 20
3.7478
 30
0
 70
     0
  0
VERTEX
  8
LAYER1
 10
5.125
 20
3.7339
 30
0
 70
     0
  0
VERTEX
  8
LAYER1
 10
5.125
 20
3.72
 30
0
 70
     0
  0
VERTEX
  8
LAYER1
 10
5.125
 20
3.72
 30
0
 70
     0
  0
VERTEX
  8
LAYER1
 10
5.1111
 20
3.72
 30
0
 70
     0
  0
SEQEND
  0
LINE
  8
LAYER1
  6
CONTINUOUS
 62
     7
 10
5
 20
3.7062
 30
0
 11
5.1111
 21
3.72
 31
0
  0
LINE
  8
LAYER1
  6
CONTINUOUS
 62
     7
 10
5.125
 20
3.7478
 30
0
 11
5.125
 21
3.7617
 31
0
  0
LINE
  8
LAYER1
  6
CONTINUOUS
 62
     7
 10
4.9167
 20
3.345
 30
0
 11
4.9444
 21
3.345
 31
0
  0
LINE
  8
LAYER1
  6
CONTINUOUS
 62
     7
 10
4.9444
 20
3.6645
 30
0
 11
4.9444
 21
3.345
 31
0
  0
ENDBLK
  8
LAYER1
  0
BLOCK
  8
LAYER1
  2
Group26
 70
     0
 10
0
 20
0
 30
0
  0
LINE
  8
LAYER1
  6
CONTINUOUS
 62
     7
 10
4.9167
 20
3.6645
 30
0
 11
4.9167
 21
3.345
 31
0
  0
LINE
  8
LAYER1
  6
CONTINUOUS
 62
     7
 10
4.9167
 20
3.3867
 30
0
 11
4.9444
 21
3.4145
 31
0
  0
LINE
  8
LAYER1
  6
CONTINUOUS
 62
     7
 10
4.9167
 20
3.5256
 30
0
 11
4.9444
 21
3.5534
 31
0
  0
LINE
  8
LAYER1
  6
CONTINUOUS
 62
     7
 10
4.9167
 20
3.6506
 30
0
 11
4.9583
 21
3.6923
 31
0
  0
LINE
  8
LAYER1
  6
CONTINUOUS
 62
     7
 10
4.9722
 20
3.6923
 30
0
 11
5.0278
 21
3.7617
 31
0
  0
LINE
  8
LAYER1
  6
CONTINUOUS
 62
     7
 10
4.8472
 20
3.7062
 30
0
 11
4.8889
 21
3.7617
 31
0
  0
LINE
  8
LAYER1
  6
CONTINUOUS
 62
     7
 10
4.7361
 20
3.7339
 30
0
 11
4.7639
 21
3.7617
 31
0
  0
LINE
  8
LAYER1
  6
CONTINUOUS
 62
     7
 10
4.9167
 20
3.345
 30
0
 11
4.9444
 21
3.3728
 31
0
  0
LINE
  8
LAYER1
  6
CONTINUOUS
 62
     7
 10
4.9167
 20
3.4839
 30
0
 11
4.9444
 21
3.4978
 31
0
  0
LINE
  8
LAYER1
  6
CONTINUOUS
 62
     7
 10
4.9167
 20
3.6089
 30
0
 11
4.9444
 21
3.6367
 31
0
  0
LINE
  8
LAYER1
  6
CONTINUOUS
 62
     7
 10
5.0278
 20
3.72
 30
0
 11
5.0694
 21
3.7617
 31
0
  0
LINE
  8
LAYER1
  6
CONTINUOUS
 62
     7
 10
4.8889
 20
3.7062
 30
0
 11
4.9444
 21
3.7617
 31
0
  0
ENDBLK
  8
LAYER1
  0
BLOCK
  8
LAYER1
  2
Group27
 70
     0
 10
0
 20
0
 30
0
  0
INSERT
  8
LAYER1
  2
Group25
 10
0
 20
0
 30
0
  0
INSERT
  8
LAYER1
  2
Group26
 10
0
 20
0
 30
0
  0
ENDBLK
  8
LAYER1
  0
BLOCK
  8
LAYER1
  2
Group28
 70
     0
 10
0
 20
0
 30
0
  0
LINE
  8
LAYER1
  6
CONTINUOUS
 62
     7
 10
4.7639
 20
3.72
 30
0
 11
4.8056
 21
3.7617
 31
0
  0
LINE
  8
LAYER1
  6
CONTINUOUS
 62
     7
 10
12.2917
 20
8.9423
 30
0
 11
12.5417
 21
8.9423
 31
0
  0
POLYLINE
  8
LAYER1
  6
CONTINUOUS
 62
     7
 66
     1
 70
     0
 40
0.001
 41
0.001
  0
VERTEX
  8
LAYER1
 10
12.3611
 20
8.9006
 30
0
 70
     0
  0
VERTEX
  8
LAYER1
 10
12.375
 20
8.9006
 30
0
 70
     0
  0
VERTEX
  8
LAYER1
 10
12.3889
 20
8.8867
 30
0
 70
     0
  0
VERTEX
  8
LAYER1
 10
12.3889
 20
8.8867
 30
0
 70
     0
  0
VERTEX
  8
LAYER1
 10
12.4028
 20
8.8867
 30
0
 70
     0
  0
VERTEX
  8
LAYER1
 10
12.4028
 20
8.8728
 30
0
 70
     0
  0
VERTEX
  8
LAYER1
 10
12.4028
 20
8.8589
 30
0
 70
     0
  0
SEQEND
  0
POLYLINE
  8
LAYER1
  6
CONTINUOUS
 62
     7
 66
     1
 70
     0
 40
0.001
 41
0.001
  0
VERTEX
  8
LAYER1
 10
12.4306
 20
8.8589
 30
0
 70
     0
  0
VERTEX
  8
LAYER1
 10
12.4306
 20
8.8867
 30
0
 70
     0
  0
VERTEX
  8
LAYER1
 10
12.4306
 20
8.8867
 30
0
 70
     0
  0
VERTEX
  8
LAYER1
 10
12.4583
 20
8.9006
 30
0
 70
     0
  0
VERTEX
  8
LAYER1
 10
12.4583
 20
8.9006
 30
0
 70
     0
  0
SEQEND
  0
POLYLINE
  8
LAYER1
  6
CONTINUOUS
 62
     7
 66
     1
 70
     0
 40
0.001
 41
0.001
  0
VERTEX
  8
LAYER1
 10
12.3194
 20
8.9145
 30
0
 70
     0
  0
VERTEX
  8
LAYER1
 10
12.3056
 20
8.9145
 30
0
 70
     0
  0
VERTEX
  8
LAYER1
 10
12.3056
 20
8.9145
 30
0
 70
     0
  0
VERTEX
  8
LAYER1
 10
12.2917
 20
8.9284
 30
0
 70
     0
  0
VERTEX
  8
LAYER1
 10
12.2917
 20
8.9423
 30
0
 70
     0
  0
SEQEND
  0
LINE
  8
LAYER1
  6
CONTINUOUS
 62
     7
 10
12.3611
 20
8.9006
 30
0
 11
12.3194
 21
8.9145
 31
0
  0
POLYLINE
  8
LAYER1
  6
CONTINUOUS
 62
     7
 66
     1
 70
     0
 40
0.001
 41
0.001
  0
VERTEX
  8
LAYER1
 10
12.5417
 20
8.9423
 30
0
 70
     0
  0
VERTEX
  8
LAYER1
 10
12.5417
 20
8.9284
 30
0
 70
     0
  0
VERTEX
  8
LAYER1
 10
12.5417
 20
8.9284
 30
0
 70
     0
  0
VERTEX
  8
LAYER1
 10
12.5278
 20
8.9145
 30
0
 70
     0
  0
VERTEX
  8
LAYER1
 10
12.5139
 20
8.9145
 30
0
 70
     0
  0
SEQEND
  0
LINE
  8
LAYER1
  6
CONTINUOUS
 62
     7
 10
12.4583
 20
8.9006
 30
0
 11
12.5139
 21
8.9145
 31
0
  0
LINE
  8
LAYER1
  6
CONTINUOUS
 62
     7
 10
12.4028
 20
8.7339
 30
0
 11
12.4306
 21
8.7339
 31
0
  0
LINE
  8
LAYER1
  6
CONTINUOUS
 62
     7
 10
12.4028
 20
8.8589
 30
0
 11
12.4028
 21
8.7339
 31
0
  0
ENDBLK
  8
LAYER1
  0
BLOCK
  8
LAYER1
  2
Group29
 70
     0
 10
0
 20
0
 30
0
  0
LINE
  8
LAYER1
  6
CONTINUOUS
 62
     7
 10
12.4306
 20
8.8589
 30
0
 11
12.4306
 21
8.7339
 31
0
  0
LINE
  8
LAYER1
  6
CONTINUOUS
 62
     7
 10
12.4028
 20
8.8312
 30
0
 11
12.4306
 21
8.8589
 31
0
  0
LINE
  8
LAYER1
  6
CONTINUOUS
 62
     7
 10
12.4722
 20
8.9006
 30
0
 11
12.5139
 21
8.9423
 31
0
  0
LINE
  8
LAYER1
  6
CONTINUOUS
 62
     7
 10
12.3472
 20
8.9006
 30
0
 11
12.375
 21
8.9423
 31
0
  0
LINE
  8
LAYER1
  6
CONTINUOUS
 62
     7
 10
12.4028
 20
8.7895
 30
0
 11
12.4306
 21
8.8173
 31
0
  0
ENDBLK
  8
LAYER1
  0
BLOCK
  8
LAYER1
  2
Group30
 70
     0
 10
0
 20
0
 30
0
  0
INSERT
  8
LAYER1
  2
Group28
 10
0
 20
0
 30
0
  0
INSERT
  8
LAYER1
  2
Group29
 10
0
 20
0
 30
0
  0
ENDBLK
  8
LAYER1
  0
BLOCK
  8
LAYER1
  2
Group31
 70
     0
 10
0
 20
0
 30
0
  0
LINE
  8
LAYER1
  6
CONTINUOUS
 62
     7
 10
12.375
 20
8.9006
 30
0
 11
12.4167
 21
8.9423
 31
0
  0
LINE
  8
LAYER1
  6
CONTINUOUS
 62
     7
 10
10.4306
 20
9.0117
 30
0
 11
10.7639
 21
9.0117
 31
0
  0
POLYLINE
  8
LAYER1
  6
CONTINUOUS
 62
     7
 66
     1
 70
     0
 40
0.001
 41
0.001
  0
VERTEX
  8
LAYER1
 10
10.6111
 20
8.9145
 30
0
 70
     0
  0
VERTEX
  8
LAYER1
 10
10.6111
 20
8.9145
 30
0
 70
     0
  0
VERTEX
  8
LAYER1
 10
10.625
 20
8.9423
 30
0
 70
     0
  0
VERTEX
  8
LAYER1
 10
10.625
 20
8.9423
 30
0
 70
     0
  0
VERTEX
  8
LAYER1
 10
10.625
 20
8.9423
 30
0
 70
     0
  0
VERTEX
  8
LAYER1
 10
10.6528
 20
8.9562
 30
0
 70
     0
  0
VERTEX
  8
LAYER1
 10
10.6528
 20
8.9562
 30
0
 70
     0
  0
SEQEND
  0
POLYLINE
  8
LAYER1
  6
CONTINUOUS
 62
     7
 66
     1
 70
     0
 40
0.001
 41
0.001
  0
VERTEX
  8
LAYER1
 10
10.5417
 20
8.9562
 30
0
 70
     0
  0
VERTEX
  8
LAYER1
 10
10.5556
 20
8.9562
 30
0
 70
     0
  0
VERTEX
  8
LAYER1
 10
10.5694
 20
8.9423
 30
0
 70
     0
  0
VERTEX
  8
LAYER1
 10
10.5694
 20
8.9423
 30
0
 70
     0
  0
VERTEX
  8
LAYER1
 10
10.5833
 20
8.9284
 30
0
 70
     0
  0
VERTEX
  8
LAYER1
 10
10.5833
 20
8.9145
 30
0
 70
     0
  0
VERTEX
  8
LAYER1
 10
10.5833
 20
8.9145
 30
0
 70
     0
  0
SEQEND
  0
POLYLINE
  8
LAYER1
  6
CONTINUOUS
 62
     7
 66
     1
 70
     0
 40
0.001
 41
0.001
  0
VERTEX
  8
LAYER1
 10
10.4583
 20
8.97
 30
0
 70
     0
  0
VERTEX
  8
LAYER1
 10
10.4583
 20
8.97
 30
0
 70
     0
  0
VERTEX
  8
LAYER1
 10
10.4444
 20
8.97
 30
0
 70
     0
  0
VERTEX
  8
LAYER1
 10
10.4444
 20
8.9839
 30
0
 70
     0
  0
VERTEX
  8
LAYER1
 10
10.4444
 20
8.9839
 30
0
 70
     0
  0
VERTEX
  8
LAYER1
 10
10.4306
 20
8.9839
 30
0
 70
     0
  0
VERTEX
  8
LAYER1
 10
10.4306
 20
8.9978
 30
0
 70
     0
  0
SEQEND
  0
LINE
  8
LAYER1
  6
CONTINUOUS
 62
     7
 10
10.5417
 20
8.9562
 30
0
 11
10.4583
 21
8.97
 31
0
  0
LINE
  8
LAYER1
  6
CONTINUOUS
 62
     7
 10
10.4306
 20
9.0117
 30
0
 11
10.4306
 21
8.9978
 31
0
  0
POLYLINE
  8
LAYER1
  6
CONTINUOUS
 62
     7
 66
     1
 70
     0
 40
0.001
 41
0.001
  0
VERTEX
  8
LAYER1
 10
10.7639
 20
8.9978
 30
0
 70
     0
  0
VERTEX
  8
LAYER1
 10
10.7639
 20
8.9839
 30
0
 70
     0
  0
VERTEX
  8
LAYER1
 10
10.7639
 20
8.9839
 30
0
 70
     0
  0
VERTEX
  8
LAYER1
 10
10.75
 20
8.9839
 30
0
 70
     0
  0
VERTEX
  8
LAYER1
 10
10.75
 20
8.97
 30
0
 70
     0
  0
VERTEX
  8
LAYER1
 10
10.75
 20
8.97
 30
0
 70
     0
  0
VERTEX
  8
LAYER1
 10
10.7361
 20
8.97
 30
0
 70
     0
  0
SEQEND
  0
LINE
  8
LAYER1
  6
CONTINUOUS
 62
     7
 10
10.6528
 20
8.9562
 30
0
 11
10.7361
 21
8.97
 31
0
  0
LINE
  8
LAYER1
  6
CONTINUOUS
 62
     7
 10
10.7639
 20
8.9978
 30
0
 11
10.7639
 21
9.0117
 31
0
  0
LINE
  8
LAYER1
  6
CONTINUOUS
 62
     7
 10
10.5833
 20
8.6784
 30
0
 11
10.6111
 21
8.6784
 31
0
  0
LINE
  8
LAYER1
  6
CONTINUOUS
 62
     7
 10
10.5833
 20
8.9145
 30
0
 11
10.5833
 21
8.6784
 31
0
  0
ENDBLK
  8
LAYER1
  0
BLOCK
  8
LAYER1
  2
Group32
 70
     0
 10
0
 20
0
 30
0
  0
LINE
  8
LAYER1
  6
CONTINUOUS
 62
     7
 10
10.6111
 20
8.9145
 30
0
 11
10.6111
 21
8.6784
 31
0
  0
LINE
  8
LAYER1
  6
CONTINUOUS
 62
     7
 10
10.5833
 20
8.6923
 30
0
 11
10.6111
 21
8.7062
 31
0
  0
LINE
  8
LAYER1
  6
CONTINUOUS
 62
     7
 10
10.5833
 20
8.8173
 30
0
 11
10.6111
 21
8.845
 31
0
  0
LINE
  8
LAYER1
  6
CONTINUOUS
 62
     7
 10
10.7361
 20
8.97
 30
0
 11
10.7639
 21
8.9978
 31
0
  0
LINE
  8
LAYER1
  6
CONTINUOUS
 62
     7
 10
10.5694
 20
8.9423
 30
0
 11
10.6389
 21
9.0117
 31
0
  0
LINE
  8
LAYER1
  6
CONTINUOUS
 62
     7
 10
10.4722
 20
8.97
 30
0
 11
10.5
 21
9.0117
 31
0
  0
LINE
  8
LAYER1
  6
CONTINUOUS
 62
     7
 10
10.5833
 20
8.7756
 30
0
 11
10.6111
 21
8.8034
 31
0
  0
LINE
  8
LAYER1
  6
CONTINUOUS
 62
     7
 10
10.5833
 20
8.9145
 30
0
 11
10.6111
 21
8.9284
 31
0
  0
LINE
  8
LAYER1
  6
CONTINUOUS
 62
     7
 10
10.6389
 20
8.9562
 30
0
 11
10.6806
 21
9.0117
 31
0
  0
ENDBLK
  8
LAYER1
  0
BLOCK
  8
LAYER1
  2
Group33
 70
     0
 10
0
 20
0
 30
0
  0
INSERT
  8
LAYER1
  2
Group31
 10
0
 20
0
 30
0
  0
INSERT
  8
LAYER1
  2
Group32
 10
0
 20
0
 30
0
  0
ENDBLK
  8
LAYER1
  0
BLOCK
  8
LAYER1
  2
Group34
 70
     0
 10
0
 20
0
 30
0
  0
LINE
  8
LAYER1
  6
CONTINUOUS
 62
     7
 10
10.5139
 20
8.97
 30
0
 11
10.5556
 21
9.0117
 31
0
  0
LINE
  8
LAYER1
  6
CONTINUOUS
 62
     7
 10
12.3056
 20
6.3589
 30
0
 11
12.5278
 21
6.3589
 31
0
  0
POLYLINE
  8
LAYER1
  6
CONTINUOUS
 62
     7
 66
     1
 70
     0
 40
0.001
 41
0.001
  0
VERTEX
  8
LAYER1
 10
12.375
 20
6.3312
 30
0
 70
     0
  0
VERTEX
  8
LAYER1
 10
12.3889
 20
6.3312
 30
0
 70
     0
  0
VERTEX
  8
LAYER1
 10
12.4028
 20
6.3173
 30
0
 70
     0
  0
VERTEX
  8
LAYER1
 10
12.4028
 20
6.3173
 30
0
 70
     0
  0
VERTEX
  8
LAYER1
 10
12.4028
 20
6.3034
 30
0
 70
     0
  0
VERTEX
  8
LAYER1
 10
12.4028
 20
6.2895
 30
0
 70
     0
  0
VERTEX
  8
LAYER1
 10
12.4028
 20
6.2895
 30
0
 70
     0
  0
SEQEND
  0
POLYLINE
  8
LAYER1
  6
CONTINUOUS
 62
     7
 66
     1
 70
     0
 40
0.001
 41
0.001
  0
VERTEX
  8
LAYER1
 10
12.4167
 20
6.2895
 30
0
 70
     0
  0
VERTEX
  8
LAYER1
 10
12.4167
 20
6.2895
 30
0
 70
     0
  0
VERTEX
  8
LAYER1
 10
12.4306
 20
6.3173
 30
0
 70
     0
  0
VERTEX
  8
LAYER1
 10
12.4306
 20
6.3173
 30
0
 70
     0
  0
VERTEX
  8
LAYER1
 10
12.4306
 20
6.3173
 30
0
 70
     0
  0
VERTEX
  8
LAYER1
 10
12.4583
 20
6.3312
 30
0
 70
     0
  0
VERTEX
  8
LAYER1
 10
12.4583
 20
6.3312
 30
0
 70
     0
  0
SEQEND
  0
POLYLINE
  8
LAYER1
  6
CONTINUOUS
 62
     7
 66
     1
 70
     0
 40
0.001
 41
0.001
  0
VERTEX
  8
LAYER1
 10
12.5278
 20
6.345
 30
0
 70
     0
  0
VERTEX
  8
LAYER1
 10
12.5139
 20
6.3312
 30
0
 70
     0
  0
VERTEX
  8
LAYER1
 10
12.5
 20
6.3312
 30
0
 70
     0
  0
SEQEND
  0
LINE
  8
LAYER1
  6
CONTINUOUS
 62
     7
 10
12.4583
 20
6.3312
 30
0
 11
12.5
 21
6.3312
 31
0
  0
LINE
  8
LAYER1
  6
CONTINUOUS
 62
     7
 10
12.5278
 20
6.345
 30
0
 11
12.5278
 21
6.3589
 31
0
  0
POLYLINE
  8
LAYER1
  6
CONTINUOUS
 62
     7
 66
     1
 70
     0
 40
0.001
 41
0.001
  0
VERTEX
  8
LAYER1
 10
12.3194
 20
6.3312
 30
0
 70
     0
  0
VERTEX
  8
LAYER1
 10
12.3056
 20
6.3312
 30
0
 70
     0
  0
VERTEX
  8
LAYER1
 10
12.3056
 20
6.345
 30
0
 70
     0
  0
SEQEND
  0
LINE
  8
LAYER1
  6
CONTINUOUS
 62
     7
 10
12.3056
 20
6.3589
 30
0
 11
12.3056
 21
6.345
 31
0
  0
LINE
  8
LAYER1
  6
CONTINUOUS
 62
     7
 10
12.375
 20
6.3312
 30
0
 11
12.3194
 21
6.3312
 31
0
  0
LINE
  8
LAYER1
  6
CONTINUOUS
 62
     7
 10
12.4028
 20
6.1923
 30
0
 11
12.4167
 21
6.1923
 31
0
  0
LINE
  8
LAYER1
  6
CONTINUOUS
 62
     7
 10
12.4028
 20
6.2895
 30
0
 11
12.4028
 21
6.1923
 31
0
  0
ENDBLK
  8
LAYER1
  0
BLOCK
  8
LAYER1
  2
Group35
 70
     0
 10
0
 20
0
 30
0
  0
LINE
  8
LAYER1
  6
CONTINUOUS
 62
     7
 10
12.4167
 20
6.2895
 30
0
 11
12.4167
 21
6.1923
 31
0
  0
LINE
  8
LAYER1
  6
CONTINUOUS
 62
     7
 10
12.4028
 20
6.2062
 30
0
 11
12.4167
 21
6.22
 31
0
  0
LINE
  8
LAYER1
  6
CONTINUOUS
 62
     7
 10
12.3889
 20
6.3173
 30
0
 11
12.4306
 21
6.3589
 31
0
  0
LINE
  8
LAYER1
  6
CONTINUOUS
 62
     7
 10
12.4028
 20
6.2895
 30
0
 11
12.4722
 21
6.3589
 31
0
  0
ENDBLK
  8
LAYER1
  0
BLOCK
  8
LAYER1
  2
Group36
 70
     0
 10
0
 20
0
 30
0
  0
INSERT
  8
LAYER1
  2
Group34
 10
0
 20
0
 30
0
  0
INSERT
  8
LAYER1
  2
Group35
 10
0
 20
0
 30
0
  0
ENDBLK
  8
LAYER1
  0
BLOCK
  8
LAYER1
  2
Group37
 70
     0
 10
0
 20
0
 30
0
  0
LINE
  8
LAYER1
  6
CONTINUOUS
 62
     7
 10
12.3194
 20
6.3312
 30
0
 11
12.3472
 21
6.3589
 31
0
  0
LINE
  8
LAYER1
  6
CONTINUOUS
 62
     7
 10
10.4444
 20
6.4839
 30
0
 11
10.75
 21
6.4839
 31
0
  0
POLYLINE
  8
LAYER1
  6
CONTINUOUS
 62
     7
 66
     1
 70
     0
 40
0.001
 41
0.001
  0
VERTEX
  8
LAYER1
 10
10.5417
 20
6.4423
 30
0
 70
     0
  0
VERTEX
  8
LAYER1
 10
10.5556
 20
6.4423
 30
0
 70
     0
  0
VERTEX
  8
LAYER1
 10
10.5694
 20
6.4284
 30
0
 70
     0
  0
VERTEX
  8
LAYER1
 10
10.5694
 20
6.4284
 30
0
 70
     0
  0
VERTEX
  8
LAYER1
 10
10.5833
 20
6.4145
 30
0
 70
     0
  0
VERTEX
  8
LAYER1
 10
10.5833
 20
6.4006
 30
0
 70
     0
  0
VERTEX
  8
LAYER1
 10
10.5833
 20
6.4006
 30
0
 70
     0
  0
SEQEND
  0
POLYLINE
  8
LAYER1
  6
CONTINUOUS
 62
     7
 66
     1
 70
     0
 40
0.001
 41
0.001
  0
VERTEX
  8
LAYER1
 10
10.6111
 20
6.4006
 30
0
 70
     0
  0
VERTEX
  8
LAYER1
 10
10.6111
 20
6.4006
 30
0
 70
     0
  0
VERTEX
  8
LAYER1
 10
10.625
 20
6.4284
 30
0
 70
     0
  0
VERTEX
  8
LAYER1
 10
10.625
 20
6.4284
 30
0
 70
     0
  0
VERTEX
  8
LAYER1
 10
10.625
 20
6.4284
 30
0
 70
     0
  0
VERTEX
  8
LAYER1
 10
10.6528
 20
6.4423
 30
0
 70
     0
  0
VERTEX
  8
LAYER1
 10
10.6528
 20
6.4423
 30
0
 70
     0
  0
SEQEND
  0
POLYLINE
  8
LAYER1
  6
CONTINUOUS
 62
     7
 66
     1
 70
     0
 40
0.001
 41
0.001
  0
VERTEX
  8
LAYER1
 10
10.4722
 20
6.4423
 30
0
 70
     0
  0
VERTEX
  8
LAYER1
 10
10.4722
 20
6.4423
 30
0
 70
     0
  0
VERTEX
  8
LAYER1
 10
10.4583
 20
6.4423
 30
0
 70
     0
  0
VERTEX
  8
LAYER1
 10
10.4583
 20
6.4562
 30
0
 70
     0
  0
VERTEX
  8
LAYER1
 10
10.4583
 20
6.4562
 30
0
 70
     0
  0
VERTEX
  8
LAYER1
 10
10.4444
 20
6.47
 30
0
 70
     0
  0
VERTEX
  8
LAYER1
 10
10.4444
 20
6.4839
 30
0
 70
     0
  0
SEQEND
  0
LINE
  8
LAYER1
  6
CONTINUOUS
 62
     7
 10
10.5417
 20
6.4423
 30
0
 11
10.4722
 21
6.4423
 31
0
  0
POLYLINE
  8
LAYER1
  6
CONTINUOUS
 62
     7
 66
     1
 70
     0
 40
0.001
 41
0.001
  0
VERTEX
  8
LAYER1
 10
10.75
 20
6.4839
 30
0
 70
     0
  0
VERTEX
  8
LAYER1
 10
10.75
 20
6.47
 30
0
 70
     0
  0
VERTEX
  8
LAYER1
 10
10.75
 20
6.47
 30
0
 70
     0
  0
VERTEX
  8
LAYER1
 10
10.7361
 20
6.4562
 30
0
 70
     0
  0
VERTEX
  8
LAYER1
 10
10.7361
 20
6.4423
 30
0
 70
     0
  0
VERTEX
  8
LAYER1
 10
10.7361
 20
6.4423
 30
0
 70
     0
  0
VERTEX
  8
LAYER1
 10
10.7222
 20
6.4423
 30
0
 70
     0
  0
SEQEND
  0
LINE
  8
LAYER1
  6
CONTINUOUS
 62
     7
 10
10.6528
 20
6.4423
 30
0
 11
10.7222
 21
6.4423
 31
0
  0
LINE
  8
LAYER1
  6
CONTINUOUS
 62
     7
 10
10.5833
 20
6.1923
 30
0
 11
10.6111
 21
6.1923
 31
0
  0
LINE
  8
LAYER1
  6
CONTINUOUS
 62
     7
 10
10.5833
 20
6.4006
 30
0
 11
10.5833
 21
6.1923
 31
0
  0
ENDBLK
  8
LAYER1
  0
BLOCK
  8
LAYER1
  2
Group38
 70
     0
 10
0
 20
0
 30
0
  0
LINE
  8
LAYER1
  6
CONTINUOUS
 62
     7
 10
10.6111
 20
6.4006
 30
0
 11
10.6111
 21
6.1923
 31
0
  0
LINE
  8
LAYER1
  6
CONTINUOUS
 62
     7
 10
10.5833
 20
6.2478
 30
0
 11
10.6111
 21
6.2617
 31
0
  0
LINE
  8
LAYER1
  6
CONTINUOUS
 62
     7
 10
10.5833
 20
6.3728
 30
0
 11
10.6111
 21
6.4006
 31
0
  0
LINE
  8
LAYER1
  6
CONTINUOUS
 62
     7
 10
10.6528
 20
6.4423
 30
0
 11
10.6944
 21
6.4839
 31
0
  0
LINE
  8
LAYER1
  6
CONTINUOUS
 62
     7
 10
10.5139
 20
6.4423
 30
0
 11
10.5556
 21
6.4839
 31
0
  0
LINE
  8
LAYER1
  6
CONTINUOUS
 62
     7
 10
10.5833
 20
6.2062
 30
0
 11
10.6111
 21
6.22
 31
0
  0
LINE
  8
LAYER1
  6
CONTINUOUS
 62
     7
 10
10.5833
 20
6.3312
 30
0
 11
10.6111
 21
6.3589
 31
0
  0
LINE
  8
LAYER1
  6
CONTINUOUS
 62
     7
 10
10.6944
 20
6.4423
 30
0
 11
10.7361
 21
6.4839
 31
0
  0
LINE
  8
LAYER1
  6
CONTINUOUS
 62
     7
 10
10.5556
 20
6.4423
 30
0
 11
10.5972
 21
6.4839
 31
0
  0
ENDBLK
  8
LAYER1
  0
BLOCK
  8
LAYER1
  2
Group39
 70
     0
 10
0
 20
0
 30
0
  0
INSERT
  8
LAYER1
  2
Group37
 10
0
 20
0
 30
0
  0
INSERT
  8
LAYER1
  2
Group38
 10
0
 20
0
 30
0
  0
ENDBLK
  8
LAYER1
  0
BLOCK
  8
LAYER1
  2
Group40
 70
     0
 10
0
 20
0
 30
0
  0
LINE
  8
LAYER1
  6
CONTINUOUS
 62
     7
 10
10.4444
 20
6.4562
 30
0
 11
10.4722
 21
6.4839
 31
0
  0
LINE
  8
LAYER1
  6
CONTINUOUS
 62
     7
 10
12.3194
 20
3.6089
 30
0
 11
12.5139
 21
3.6089
 31
0
  0
POLYLINE
  8
LAYER1
  6
CONTINUOUS
 62
     7
 66
     1
 70
     0
 40
0.001
 41
0.001
  0
VERTEX
  8
LAYER1
 10
12.375
 20
3.5812
 30
0
 70
     0
  0
VERTEX
  8
LAYER1
 10
12.3889
 20
3.5812
 30
0
 70
     0
  0
VERTEX
  8
LAYER1
 10
12.4028
 20
3.5673
 30
0
 70
     0
  0
VERTEX
  8
LAYER1
 10
12.4028
 20
3.5673
 30
0
 70
     0
  0
VERTEX
  8
LAYER1
 10
12.4028
 20
3.5534
 30
0
 70
     0
  0
VERTEX
  8
LAYER1
 10
12.4028
 20
3.5395
 30
0
 70
     0
  0
VERTEX
  8
LAYER1
 10
12.4028
 20
3.5395
 30
0
 70
     0
  0
SEQEND
  0
POLYLINE
  8
LAYER1
  6
CONTINUOUS
 62
     7
 66
     1
 70
     0
 40
0.001
 41
0.001
  0
VERTEX
  8
LAYER1
 10
12.4167
 20
3.5395
 30
0
 70
     0
  0
VERTEX
  8
LAYER1
 10
12.4167
 20
3.5395
 30
0
 70
     0
  0
VERTEX
  8
LAYER1
 10
12.4306
 20
3.5673
 30
0
 70
     0
  0
VERTEX
  8
LAYER1
 10
12.4306
 20
3.5673
 30
0
 70
     0
  0
VERTEX
  8
LAYER1
 10
12.4306
 20
3.5673
 30
0
 70
     0
  0
VERTEX
  8
LAYER1
 10
12.4583
 20
3.5812
 30
0
 70
     0
  0
VERTEX
  8
LAYER1
 10
12.4583
 20
3.5812
 30
0
 70
     0
  0
SEQEND
  0
POLYLINE
  8
LAYER1
  6
CONTINUOUS
 62
     7
 66
     1
 70
     0
 40
0.001
 41
0.001
  0
VERTEX
  8
LAYER1
 10
12.3448
 20
3.5674
 30
0
 70
     0
  0
VERTEX
  8
LAYER1
 10
12.3267
 20
3.5763
 30
0
 70
     0
  0
VERTEX
  8
LAYER1
 10
12.3194
 20
3.595
 30
0
 70
     0
  0
SEQEND
  0
LINE
  8
LAYER1
  6
CONTINUOUS
 62
     7
 10
12.375
 20
3.5812
 30
0
 11
12.3333
 21
3.5812
 31
0
  0
POLYLINE
  8
LAYER1
  6
CONTINUOUS
 62
     7
 66
     1
 70
     0
 40
0.001
 41
0.001
  0
VERTEX
  8
LAYER1
 10
12.5139
 20
3.6089
 30
0
 70
     0
  0
VERTEX
  8
LAYER1
 10
12.5139
 20
3.595
 30
0
 70
     0
  0
VERTEX
  8
LAYER1
 10
12.5139
 20
3.595
 30
0
 70
     0
  0
VERTEX
  8
LAYER1
 10
12.5
 20
3.595
 30
0
 70
     0
  0
VERTEX
  8
LAYER1
 10
12.5
 20
3.5812
 30
0
 70
     0
  0
VERTEX
  8
LAYER1
 10
12.5
 20
3.5812
 30
0
 70
     0
  0
VERTEX
  8
LAYER1
 10
12.4861
 20
3.5812
 30
0
 70
     0
  0
SEQEND
  0
LINE
  8
LAYER1
  6
CONTINUOUS
 62
     7
 10
12.4583
 20
3.5812
 30
0
 11
12.4861
 21
3.5812
 31
0
  0
LINE
  8
LAYER1
  6
CONTINUOUS
 62
     7
 10
12.4028
 20
3.4839
 30
0
 11
12.4167
 21
3.4839
 31
0
  0
LINE
  8
LAYER1
  6
CONTINUOUS
 62
     7
 10
12.4028
 20
3.5395
 30
0
 11
12.4028
 21
3.4839
 31
0
  0
ENDBLK
  8
LAYER1
  0
BLOCK
  8
LAYER1
  2
Group41
 70
     0
 10
0
 20
0
 30
0
  0
LINE
  8
LAYER1
  6
CONTINUOUS
 62
     7
 10
12.4167
 20
3.5395
 30
0
 11
12.4167
 21
3.4839
 31
0
  0
LINE
  8
LAYER1
  6
CONTINUOUS
 62
     7
 10
12.4028
 20
3.5395
 30
0
 11
12.4306
 21
3.5673
 31
0
  0
LINE
  8
LAYER1
  6
CONTINUOUS
 62
     7
 10
12.4444
 20
3.5673
 30
0
 11
12.4722
 21
3.6089
 31
0
  0
LINE
  8
LAYER1
  6
CONTINUOUS
 62
     7
 10
12.3194
 20
3.595
 30
0
 11
12.3472
 21
3.6089
 31
0
  0
LINE
  8
LAYER1
  6
CONTINUOUS
 62
     7
 10
12.4028
 20
3.4978
 30
0
 11
12.4167
 21
3.5117
 31
0
  0
LINE
  8
LAYER1
  6
CONTINUOUS
 62
     7
 10
12.4861
 20
3.5812
 30
0
 11
12.5139
 21
3.6089
 31
0
  0
ENDBLK
  8
LAYER1
  0
BLOCK
  8
LAYER1
  2
Group42
 70
     0
 10
0
 20
0
 30
0
  0
INSERT
  8
LAYER1
  2
Group40
 10
0
 20
0
 30
0
  0
INSERT
  8
LAYER1
  2
Group41
 10
0
 20
0
 30
0
  0
ENDBLK
  8
LAYER1
  0
BLOCK
  8
LAYER1
  2
Group43
 70
     0
 10
0
 20
0
 30
0
  0
LINE
  8
LAYER1
  6
CONTINUOUS
 62
     7
 10
12.3611
 20
3.5812
 30
0
 11
12.3889
 21
3.6089
 31
0
  0
LINE
  8
LAYER1
  6
CONTINUOUS
 62
     7
 10
10.4583
 20
3.6784
 30
0
 11
10.7361
 21
3.6784
 31
0
  0
POLYLINE
  8
LAYER1
  6
CONTINUOUS
 62
     7
 66
     1
 70
     0
 40
0.001
 41
0.001
  0
VERTEX
  8
LAYER1
 10
10.5417
 20
3.6367
 30
0
 70
     0
  0
VERTEX
  8
LAYER1
 10
10.5556
 20
3.6367
 30
0
 70
     0
  0
VERTEX
  8
LAYER1
 10
10.5694
 20
3.6228
 30
0
 70
     0
  0
VERTEX
  8
LAYER1
 10
10.5694
 20
3.6228
 30
0
 70
     0
  0
VERTEX
  8
LAYER1
 10
10.5833
 20
3.6089
 30
0
 70
     0
  0
VERTEX
  8
LAYER1
 10
10.5833
 20
3.595
 30
0
 70
     0
  0
VERTEX
  8
LAYER1
 10
10.5833
 20
3.595
 30
0
 70
     0
  0
SEQEND
  0
POLYLINE
  8
LAYER1
  6
CONTINUOUS
 62
     7
 66
     1
 70
     0
 40
0.001
 41
0.001
  0
VERTEX
  8
LAYER1
 10
10.6111
 20
3.595
 30
0
 70
     0
  0
VERTEX
  8
LAYER1
 10
10.6111
 20
3.595
 30
0
 70
     0
  0
VERTEX
  8
LAYER1
 10
10.625
 20
3.6228
 30
0
 70
     0
  0
VERTEX
  8
LAYER1
 10
10.625
 20
3.6228
 30
0
 70
     0
  0
VERTEX
  8
LAYER1
 10
10.625
 20
3.6228
 30
0
 70
     0
  0
VERTEX
  8
LAYER1
 10
10.6389
 20
3.6367
 30
0
 70
     0
  0
VERTEX
  8
LAYER1
 10
10.6389
 20
3.6367
 30
0
 70
     0
  0
SEQEND
  0
POLYLINE
  8
LAYER1
  6
CONTINUOUS
 62
     7
 66
     1
 70
     0
 40
0.001
 41
0.001
  0
VERTEX
  8
LAYER1
 10
10.4861
 20
3.6367
 30
0
 70
     0
  0
VERTEX
  8
LAYER1
 10
10.4861
 20
3.6367
 30
0
 70
     0
  0
VERTEX
  8
LAYER1
 10
10.4722
 20
3.6367
 30
0
 70
     0
  0
VERTEX
  8
LAYER1
 10
10.4722
 20
3.6506
 30
0
 70
     0
  0
VERTEX
  8
LAYER1
 10
10.4722
 20
3.6506
 30
0
 70
     0
  0
VERTEX
  8
LAYER1
 10
10.4583
 20
3.6645
 30
0
 70
     0
  0
VERTEX
  8
LAYER1
 10
10.4583
 20
3.6784
 30
0
 70
     0
  0
SEQEND
  0
LINE
  8
LAYER1
  6
CONTINUOUS
 62
     7
 10
10.5417
 20
3.6367
 30
0
 11
10.4861
 21
3.6367
 31
0
  0
POLYLINE
  8
LAYER1
  6
CONTINUOUS
 62
     7
 66
     1
 70
     0
 40
0.001
 41
0.001
  0
VERTEX
  8
LAYER1
 10
10.7361
 20
3.6784
 30
0
 70
     0
  0
VERTEX
  8
LAYER1
 10
10.7361
 20
3.6645
 30
0
 70
     0
  0
VERTEX
  8
LAYER1
 10
10.7361
 20
3.6645
 30
0
 70
     0
  0
VERTEX
  8
LAYER1
 10
10.7222
 20
3.6506
 30
0
 70
     0
  0
VERTEX
  8
LAYER1
 10
10.7222
 20
3.6367
 30
0
 70
     0
  0
VERTEX
  8
LAYER1
 10
10.7222
 20
3.6367
 30
0
 70
     0
  0
VERTEX
  8
LAYER1
 10
10.7083
 20
3.6367
 30
0
 70
     0
  0
SEQEND
  0
LINE
  8
LAYER1
  6
CONTINUOUS
 62
     7
 10
10.6389
 20
3.6367
 30
0
 11
10.7083
 21
3.6367
 31
0
  0
LINE
  8
LAYER1
  6
CONTINUOUS
 62
     7
 10
10.5833
 20
3.4284
 30
0
 11
10.6111
 21
3.4284
 31
0
  0
LINE
  8
LAYER1
  6
CONTINUOUS
 62
     7
 10
10.5833
 20
3.595
 30
0
 11
10.5833
 21
3.4284
 31
0
  0
ENDBLK
  8
LAYER1
  0
BLOCK
  8
LAYER1
  2
Group44
 70
     0
 10
0
 20
0
 30
0
  0
LINE
  8
LAYER1
  6
CONTINUOUS
 62
     7
 10
10.6111
 20
3.595
 30
0
 11
10.6111
 21
3.4284
 31
0
  0
LINE
  8
LAYER1
  6
CONTINUOUS
 62
     7
 10
10.5833
 20
3.4423
 30
0
 11
10.6111
 21
3.4562
 31
0
  0
LINE
  8
LAYER1
  6
CONTINUOUS
 62
     7
 10
10.5833
 20
3.5673
 30
0
 11
10.6111
 21
3.595
 31
0
  0
LINE
  8
LAYER1
  6
CONTINUOUS
 62
     7
 10
10.6528
 20
3.6367
 30
0
 11
10.6944
 21
3.6784
 31
0
  0
LINE
  8
LAYER1
  6
CONTINUOUS
 62
     7
 10
10.5278
 20
3.6367
 30
0
 11
10.5556
 21
3.6784
 31
0
  0
LINE
  8
LAYER1
  6
CONTINUOUS
 62
     7
 10
10.5833
 20
3.5256
 30
0
 11
10.6111
 21
3.5395
 31
0
  0
LINE
  8
LAYER1
  6
CONTINUOUS
 62
     7
 10
10.7083
 20
3.6367
 30
0
 11
10.7361
 21
3.6784
 31
0
  0
LINE
  8
LAYER1
  6
CONTINUOUS
 62
     7
 10
10.5556
 20
3.6367
 30
0
 11
10.5972
 21
3.6784
 31
0
  0
ENDBLK
  8
LAYER1
  0
BLOCK
  8
LAYER1
  2
Group45
 70
     0
 10
0
 20
0
 30
0
  0
INSERT
  8
LAYER1
  2
Group43
 10
0
 20
0
 30
0
  0
INSERT
  8
LAYER1
  2
Group44
 10
0
 20
0
 30
0
  0
ENDBLK
  8
LAYER1
  0
BLOCK
  8
LAYER1
  2
Group46
 70
     0
 10
0
 20
0
 30
0
  0
TEXT
  8
LAYER1
 62
     7
 10
2.4909
 20
0.0599
 30
0
 40
0.1389
  1
- 4-205 -
 50
0
999
Geneva
  0
TEXT
  8
LAYER1
 62
     7
 10
10.727
 20
0.0599
 30
0
 40
0.1389
  1
- 4-206 -
 50
0
999
Geneva
  0
TEXT
  8
LAYER1
 62
     7
 10
2.7687
 20
8.171
 30
0
 40
0.0833
  1
ST 10x33
 50
0
999
Geneva
  0
TEXT
  8
LAYER1
 62
     7
 10
2.352
 20
7.9905
 30
0
 40
0.0833
  1
S Shape Structural Tee
 50
0
999
Geneva
  0
TEXT
  8
LAYER1
 62
     7
 10
2.6992
 20
5.5877
 30
0
 40
0.0833
  1
ST 9x27.35
 50
0
999
Geneva
  0
TEXT
  8
LAYER1
 62
     7
 10
2.352
 20
5.3932
 30
0
 40
0.0833
  1
S Shape Structural Tee
 50
0
999
Geneva
  0
TEXT
  8
LAYER1
 62
     7
 10
2.6437
 20
3.0182
 30
0
 40
0.0833
  1
ST 7.5x21.45
 50
0
999
Geneva
  0
TEXT
  8
LAYER1
 62
     7
 10
2.352
 20
2.8377
 30
0
 40
0.0833
  1
S Shape Structural Tee
 50
0
999
Geneva
  0
INSERT
  8
LAYER1
  2
Group3
 10
0
 20
0
 30
0
  0
INSERT
  8
LAYER1
  2
Group6
 10
0
 20
0
 30
0
  0
INSERT
  8
LAYER1
  2
Group9
 10
0
 20
0
 30
0
  0
TEXT
  8
LAYER1
 62
     7
 10
2.8659
 20
7.8099
 30
0
 40
0.0833
  1
45101
 50
0
999
Geneva
  0
TEXT
  8
LAYER1
 62
     7
 10
2.8659
 20
5.1988
 30
0
 40
0.0833
  1
45104
 50
0
999
Geneva
  0
TEXT
  8
LAYER1
 62
     7
 10
2.8659
 20
2.6293
 30
0
 40
0.0833
  1
45107
 50
0
999
Geneva
  0
LINE
  8
LAYER1
  6
CONTINUOUS
 62
     7
 10
2.8611
 20
3.8312
 30
0
 11
2.8889
 21
3.8589
 31
0
  0
LINE
  8
LAYER1
  6
CONTINUOUS
 62
     7
 10
0.1944
 20
10.8728
 30
0
 11
4.6944
 21
10.8728
 31
0
  0
TEXT
  8
LAYER1
 62
     7
 10
0.2131
 20
10.6293
 30
0
 40
0.125
  1
Structural Steel - ANS S Tees
 50
0
999
Geneva
  0
TEXT
  8
LAYER1
 62
     7
 10
0.852
 20
8.1849
 30
0
 40
0.0833
  1
ST 12x53
 50
0
999
Geneva
  0
TEXT
  8
LAYER1
 62
     7
 10
0.4353
 20
7.9905
 30
0
 40
0.0833
  1
S Shape Structural Tee
 50
0
999
Geneva
  0
TEXT
  8
LAYER1
 62
     7
 10
0.852
 20
5.5599
 30
0
 40
0.0833
  1
ST 12x45
 50
0
999
Geneva
  0
TEXT
  8
LAYER1
 62
     7
 10
0.4353
 20
5.3655
 30
0
 40
0.0833
  1
S Shape Structural Tee
 50
0
999
Geneva
  0
TEXT
  8
LAYER1
 62
     7
 10
0.852
 20
3.0182
 30
0
 40
0.0833
  1
ST 10x43
 50
0
999
Geneva
  0
TEXT
  8
LAYER1
 62
     7
 10
0.4353
 20
2.8377
 30
0
 40
0.0833
  1
S Shape Structural Tee
 50
0
999
Geneva
  0
TEXT
  8
LAYER1
 62
     7
 10
4.602
 20
8.171
 30
0
 40
0.0833
  1
ST 6x20.4
 50
0
999
Geneva
  0
TEXT
  8
LAYER1
 62
     7
 10
4.2131
 20
7.9905
 30
0
 40
0.0833
  1
S Shape Structural Tee
 50
0
999
Geneva
  0
TEXT
  8
LAYER1
 62
     7
 10
4.602
 20
5.5877
 30
0
 40
0.0833
  1
ST 6x15.9
 50
0
999
Geneva
  0
TEXT
  8
LAYER1
 62
     7
 10
4.2131
 20
5.3932
 30
0
 40
0.0833
  1
S Shape Structural Tee
 50
0
999
Geneva
  0
TEXT
  8
LAYER1
 62
     7
 10
4.602
 20
3.0182
 30
0
 40
0.0833
  1
ST 5x12.7
 50
0
999
Geneva
  0
TEXT
  8
LAYER1
 62
     7
 10
4.2131
 20
2.8377
 30
0
 40
0.0833
  1
S Shape Structural Tee
 50
0
999
Geneva
  0
TEXT
  8
LAYER1
 62
     7
 10
10.2964
 20
8.4766
 30
0
 40
0.0833
  1
ST 4x9.2
 50
0
999
Geneva
  0
TEXT
  8
LAYER1
 62
     7
 10
9.8659
 20
8.2821
 30
0
 40
0.0833
  1
S Shape Structural Tee
 50
0
999
Geneva
  0
TEXT
  8
LAYER1
 62
     7
 10
10.1992
 20
5.8099
 30
0
 40
0.0833
  1
ST 3.5x7.65
 50
0
999
Geneva
  0
TEXT
  8
LAYER1
 62
     7
 10
9.8659
 20
5.6155
 30
0
 40
0.0833
  1
S Shape Structural Tee
 50
0
999
Geneva
  0
TEXT
  8
LAYER1
 62
     7
 10
10.2548
 20
3.2405
 30
0
 40
0.0833
  1
ST 3x6.25
 50
0
999
Geneva
  0
TEXT
  8
LAYER1
 62
     7
 10
9.8659
 20
3.046
 30
0
 40
0.0833
  1
S Shape Structural Tee
 50
0
999
Geneva
  0
TEXT
  8
LAYER1
 62
     7
 10
12.1159
 20
8.4766
 30
0
 40
0.0833
  1
ST 2.5x5
 50
0
999
Geneva
  0
TEXT
  8
LAYER1
 62
     7
 10
11.6853
 20
8.2821
 30
0
 40
0.0833
  1
S Shape Structural Tee
 50
0
999
Geneva
  0
TEXT
  8
LAYER1
 62
     7
 10
12.0742
 20
5.8099
 30
0
 40
0.0833
  1
ST 2x3.85
 50
0
999
Geneva
  0
TEXT
  8
LAYER1
 62
     7
 10
11.6853
 20
5.6155
 30
0
 40
0.0833
  1
S Shape Structural Tee
 50
0
999
Geneva
  0
TEXT
  8
LAYER1
 62
     7
 10
12.0187
 20
3.2405
 30
0
 40
0.0833
  1
ST 1.5x2.85
 50
0
999
Geneva
  0
TEXT
  8
LAYER1
 62
     7
 10
11.6853
 20
3.046
 30
0
 40
0.0833
  1
S Shape Structural Tee
 50
0
999
Geneva
  0
INSERT
  8
LAYER1
  2
Group12
 10
0
 20
0
 30
0
  0
INSERT
  8
LAYER1
  2
Group15
 10
0
 20
0
 30
0
  0
INSERT
  8
LAYER1
  2
Group18
 10
0
 20
0
 30
0
  0
INSERT
  8
LAYER1
  2
Group21
 10
0
 20
0
 30
0
  0
INSERT
  8
LAYER1
  2
Group24
 10
0
 20
0
 30
0
  0
INSERT
  8
LAYER1
  2
Group27
 10
0
 20
0
 30
0
  0
INSERT
  8
LAYER1
  2
Group30
 10
0
 20
0
 30
0
  0
INSERT
  8
LAYER1
  2
Group33
 10
0
 20
0
 30
0
  0
INSERT
  8
LAYER1
  2
Group36
 10
0
 20
0
 30
0
  0
INSERT
  8
LAYER1
  2
Group39
 10
0
 20
0
 30
0
  0
INSERT
  8
LAYER1
  2
Group42
 10
0
 20
0
 30
0
  0
INSERT
  8
LAYER1
  2
Group45
 10
0
 20
0
 30
0
  0
LINE
  8
LAYER1
  6
CONTINUOUS
 62
     7
 10
10.4583
 20
3.6645
 30
0
 11
10.4722
 21
3.6784
 31
0
  0
LINE
  8
LAYER1
  6
CONTINUOUS
 62
     7
 10
8.625
 20
10.845
 30
0
 11
13.125
 21
10.845
 31
0
  0
TEXT
  8
LAYER1
 62
     7
 10
8.6298
 20
10.6016
 30
0
 40
0.125
  1
Structural Steel - ANS S Tees
 50
0
999
Geneva
  0
TEXT
  8
LAYER1
 62
     7
 10
4.9353
 20
0.2821
 30
0
 40
0.0833
  1
©1992
 50
0
999
Geneva
  0
TEXT
  8
LAYER1
 62
     7
 10
4.227
 20
0.1155
 30
0
 40
0.0833
  1
Advanced System Design, Inc.
 50
0
999
Geneva
  0
TEXT
  8
LAYER1
 62
     7
 10
0.1853
 20
0.1293
 30
0
 40
0.0833
  1
Scale 1in = 1ft  Printed at 70%
 50
0
999
Geneva
  0
TEXT
  8
LAYER1
 62
     7
 10
13.2964
 20
0.2821
 30
0
 40
0.0833
  1
©1992
 50
0
999
Geneva
  0
TEXT
  8
LAYER1
 62
     7
 10
12.5881
 20
0.1155
 30
0
 40
0.0833
  1
Advanced System Design, Inc.
 50
0
999
Geneva
  0
TEXT
  8
LAYER1
 62
     7
 10
8.6575
 20
0.1293
 30
0
 40
0.0833
  1
Scale 1in = 1ft  Printed at 70%
 50
0
999
Geneva
  0
TEXT
  8
LAYER1
 62
     7
 10
0.9492
 20
7.8099
 30
0
 40
0.0833
  1
45100
 50
0
999
Geneva
  0
TEXT
  8
LAYER1
 62
     7
 10
4.727
 20
7.8099
 30
0
 40
0.0833
  1
45102
 50
0
999
Geneva
  0
TEXT
  8
LAYER1
 62
     7
 10
0.9492
 20
5.1988
 30
0
 40
0.0833
  1
45103
 50
0
999
Geneva
  0
TEXT
  8
LAYER1
 62
     7
 10
4.727
 20
5.1988
 30
0
 40
0.0833
  1
45105
 50
0
999
Geneva
  0
TEXT
  8
LAYER1
 62
     7
 10
0.9492
 20
2.6293
 30
0
 40
0.0833
  1
45106
 50
0
999
Geneva
  0
TEXT
  8
LAYER1
 62
     7
 10
4.727
 20
2.6293
 30
0
 40
0.0833
  1
45108
 50
0
999
Geneva
  0
TEXT
  8
LAYER1
 62
     7
 10
10.3798
 20
8.1016
 30
0
 40
0.0833
  1
45109
 50
0
999
Geneva
  0
TEXT
  8
LAYER1
 62
     7
 10
12.1992
 20
8.1016
 30
0
 40
0.0833
  1
45110
 50
0
999
Geneva
  0
TEXT
  8
LAYER1
 62
     7
 10
10.3798
 20
5.421
 30
0
 40
0.0833
  1
45111
 50
0
999
Geneva
  0
TEXT
  8
LAYER1
 62
     7
 10
12.1992
 20
5.421
 30
0
 40
0.0833
  1
45112
 50
0
999
Geneva
  0
TEXT
  8
LAYER1
 62
     7
 10
10.3798
 20
2.8655
 30
0
 40
0.0833
  1
45113
 50
0
999
Geneva
  0
TEXT
  8
LAYER1
 62
     7
 10
12.1992
 20
2.8655
 30
0
 40
0.0833
  1
45114
 50
0
999
Geneva
  0
ENDBLK
  8
LAYER1
  0
ENDSEC
  0
SECTION
  2
ENTITIES
  0
INSERT
  8
LAYER1
  2
Group46
 10
0
 20
0
 30
0
  0
ENDSEC
  0
EOF
